ISO-10303-21;
HEADER;
FILE_DESCRIPTION (( 'STEP AP214' ),
    '1' );
FILE_NAME ('6003754.stp',
    '2016-08-23T12:09:52',
    ( '' ),
    ( '' ),
    'SwSTEP 2.0',
    'SolidWorks 2014',
    '' );
FILE_SCHEMA (( 'AUTOMOTIVE_DESIGN' ));
ENDSEC;

DATA;
#1 = CONICAL_SURFACE ( 'NONE', #261, 2.100000000000000100, 0.6981317007977261300 ) ;
#2 = ADVANCED_FACE ( 'NONE', ( #158 ), #1, .F. ) ;
#3 = VECTOR ( 'NONE', #15, 1000.000000000000000 ) ;
#4 = PRODUCT_DEFINITION_FORMATION_WITH_SPECIFIED_SOURCE ( 'ANY', '', #305, .NOT_KNOWN. ) ;
#5 = COLOUR_RGB ( '',0.8862745098039215300, 0.3254901960784313800, 0.01176470588235294100 ) ;
#6 = ORIENTED_EDGE ( 'NONE', *, *, #267, .F. ) ;
#7 = ORIENTED_EDGE ( 'NONE', *, *, #296, .T. ) ;
#8 = ORIENTED_EDGE ( 'NONE', *, *, #255, .T. ) ;
#9 = CARTESIAN_POINT ( 'NONE',  ( 0.0000000000000000000, 10.26291228706919300, 0.0000000000000000000 ) ) ;
#10 = DIRECTION ( 'NONE',  ( 0.0000000000000000000, 0.0000000000000000000, -1.000000000000000000 ) ) ;
#11 = UNCERTAINTY_MEASURE_WITH_UNIT (LENGTH_MEASURE( 1.000000000000000100E-005 ), #92, 'distance_accuracy_value', 'NONE');
#12 = CARTESIAN_POINT ( 'NONE',  ( 2.571758278209442000E-016, 0.9000000000000000200, 2.100000000000000100 ) ) ;
#13 = PRODUCT_DEFINITION_CONTEXT ( 'detailed design', #89, 'design' ) ;
#14 = CARTESIAN_POINT ( 'NONE',  ( 0.0000000000000000000, 0.8903945002592068600, 0.0000000000000000000 ) ) ;
#15 = DIRECTION ( 'NONE',  ( -0.0000000000000000000, -1.000000000000000000, -0.0000000000000000000 ) ) ;
#16 = DIRECTION ( 'NONE',  ( -0.0000000000000000000, -1.000000000000000000, -0.0000000000000000000 ) ) ;
#17 = DIRECTION ( 'NONE',  ( -0.0000000000000000000, -1.000000000000000000, -0.0000000000000000000 ) ) ;
#18 = DIRECTION ( 'NONE',  ( 0.0000000000000000000, 0.0000000000000000000, -1.000000000000000000 ) ) ;
#19 = CARTESIAN_POINT ( 'NONE',  ( 0.0000000000000000000, 0.8903945002592068600, -2.400000000000000400 ) ) ;
#20 = DIRECTION ( 'NONE',  ( -0.0000000000000000000, -1.000000000000000000, -0.0000000000000000000 ) ) ;
#21 = CARTESIAN_POINT ( 'NONE',  ( 0.0000000000000000000, 0.8903945002592068600, 0.0000000000000000000 ) ) ;
#22 = CARTESIAN_POINT ( 'NONE',  ( 4.163799117101001100E-016, 10.26291228706919300, 3.400000000000000400 ) ) ;
#23 = DIRECTION ( 'NONE',  ( -0.0000000000000000000, -1.000000000000000000, -0.0000000000000000000 ) ) ;
#24 = DIRECTION ( 'NONE',  ( 0.0000000000000000000, 0.0000000000000000000, -1.000000000000000000 ) ) ;
#25 =( NAMED_UNIT ( * ) PLANE_ANGLE_UNIT ( ) SI_UNIT ( $, .RADIAN. ) );
#26 = DIRECTION ( 'NONE',  ( 0.0000000000000000000, 0.0000000000000000000, -1.000000000000000000 ) ) ;
#27 =( LENGTH_UNIT ( ) NAMED_UNIT ( * ) SI_UNIT ( .MILLI., .METRE. ) );
#28 = CARTESIAN_POINT ( 'NONE',  ( 0.0000000000000000000, 0.0000000000000000000, 0.0000000000000000000 ) ) ;
#29 = CONICAL_SURFACE ( 'NONE', #215, 2.100000000000000100, 0.6981317007977261300 ) ;
#30 = TOROIDAL_SURFACE ( 'NONE', #63, -1.400000000000000100, 3.500000000000000400 ) ;
#31 = CYLINDRICAL_SURFACE ( 'NONE', #245, 3.400000000000000400 ) ;
#32 = EDGE_CURVE ( 'NONE', #106, #211, #151, .T. ) ;
#33 = TOROIDAL_SURFACE ( 'NONE', #268, 2.400000000000000400, 1.000000000000000200 ) ;
#34 = DIRECTION ( 'NONE',  ( 0.0000000000000000000, 0.0000000000000000000, -1.000000000000000000 ) ) ;
#35 = FACE_OUTER_BOUND ( 'NONE', #219, .T. ) ;
#36 = DIRECTION ( 'NONE',  ( -0.0000000000000000000, -1.000000000000000000, -0.0000000000000000000 ) ) ;
#37 = DIRECTION ( 'NONE',  ( -0.0000000000000000000, -1.000000000000000000, -0.0000000000000000000 ) ) ;
#38 = DIRECTION ( 'NONE',  ( -1.000000000000000000, 0.0000000000000000000, 0.0000000000000000000 ) ) ;
#39 = LINE ( 'NONE', #217, #110 ) ;
#40 = FACE_OUTER_BOUND ( 'NONE', #93, .T. ) ;
#41 = DIRECTION ( 'NONE',  ( 1.000000000000000000, 0.0000000000000000000, -1.224646799147353200E-016 ) ) ;
#42 = TOROIDAL_SURFACE ( 'NONE', #298, 2.400000000000000400, 1.000000000000000200 ) ;
#43 = FACE_OUTER_BOUND ( 'NONE', #184, .T. ) ;
#44 = CARTESIAN_POINT ( 'NONE',  ( 0.0000000000000000000, 10.26291228706919300, 0.0000000000000000000 ) ) ;
#45 = CARTESIAN_POINT ( 'NONE',  ( 2.571758278209442000E-016, 0.9000000000000000200, 2.100000000000000100 ) ) ;
#46 = DIRECTION ( 'NONE',  ( 0.0000000000000000000, 0.0000000000000000000, -1.000000000000000000 ) ) ;
#47 = DIRECTION ( 'NONE',  ( 7.871877887341930800E-017, -0.7660444431189817900, 0.6427876096865348100 ) ) ;
#48 = DIRECTION ( 'NONE',  ( 0.0000000000000000000, -0.7660444431189817900, -0.6427876096865348100 ) ) ;
#49 = VERTEX_POINT ( 'NONE', #12 ) ;
#50 = CARTESIAN_POINT ( 'NONE',  ( 0.0000000000000000000, 10.26291228706919300, 0.0000000000000000000 ) ) ;
#51 = CARTESIAN_POINT ( 'NONE',  ( 4.163799117101001100E-016, 0.0000000000000000000, 3.400000000000000400 ) ) ;
#52 = CLOSED_SHELL ( 'NONE', ( #2, #336, #273, #325, #282, #274, #281, #342, #144, #291, #272, #280 ) ) ;
#53 = CARTESIAN_POINT ( 'NONE',  ( 0.0000000000000000000, 0.0000000000000000000, 0.0000000000000000000 ) ) ;
#54 = CARTESIAN_POINT ( 'NONE',  ( 0.0000000000000000000, 0.0000000000000000000, 0.0000000000000000000 ) ) ;
#55 = FILL_AREA_STYLE_COLOUR ( '', #77 ) ;
#56 = DIRECTION ( 'NONE',  ( 0.0000000000000000000, 0.0000000000000000000, -1.000000000000000000 ) ) ;
#57 = SHAPE_DEFINITION_REPRESENTATION ( #195, #297 ) ;
#58 = ORIENTED_EDGE ( 'NONE', *, *, #222, .T. ) ;
#59 = DIRECTION ( 'NONE',  ( -0.0000000000000000000, -1.000000000000000000, -0.0000000000000000000 ) ) ;
#60 = EDGE_CURVE ( 'NONE', #283, #241, #150, .T. ) ;
#61 = DIRECTION ( 'NONE',  ( -1.224646799147353200E-016, 0.0000000000000000000, -1.000000000000000000 ) ) ;
#62 = DIRECTION ( 'NONE',  ( 1.000000000000000000, 0.0000000000000000000, -1.224646799147353200E-016 ) ) ;
#63 = AXIS2_PLACEMENT_3D ( 'NONE', #50, #114, #18 ) ;
#64 = CARTESIAN_POINT ( 'NONE',  ( 0.0000000000000000000, 0.8903945002592068600, 0.0000000000000000000 ) ) ;
#65 = EDGE_CURVE ( 'NONE', #200, #230, #152, .T. ) ;
#66 = CARTESIAN_POINT ( 'NONE',  ( 2.939152317953647600E-016, 0.8903945002592068600, 2.400000000000000400 ) ) ;
#67 = UNCERTAINTY_MEASURE_WITH_UNIT (LENGTH_MEASURE( 1.000000000000000100E-005 ), #27, 'distance_accuracy_value', 'NONE');
#68 = PRODUCT_CONTEXT ( 'NONE', #149, 'mechanical' ) ;
#69 = DIRECTION ( 'NONE',  ( 1.000000000000000000, 0.0000000000000000000, 0.0000000000000000000 ) ) ;
#70 = CARTESIAN_POINT ( 'NONE',  ( 4.163799117101001500E-016, 0.8903945002592068600, 3.400000000000000400 ) ) ;
#71 = DIRECTION ( 'NONE',  ( 0.0000000000000000000, 0.0000000000000000000, 1.000000000000000000 ) ) ;
#72 = PRESENTATION_STYLE_ASSIGNMENT (( #125 ) ) ;
#73 = SURFACE_STYLE_FILL_AREA ( #148 ) ;
#74 = CYLINDRICAL_SURFACE ( 'NONE', #258, 3.400000000000000400 ) ;
#75 = FACE_OUTER_BOUND ( 'NONE', #159, .T. ) ;
#76 = AXIS2_PLACEMENT_3D ( 'NONE', #178, #193, #191 ) ;
#77 = COLOUR_RGB ( '',0.8862745098039215300, 0.3254901960784313800, 0.01176470588235294100 ) ;
#78 = VECTOR ( 'NONE', #17, 1000.000000000000000 ) ;
#79 = ORIENTED_EDGE ( 'NONE', *, *, #341, .F. ) ;
#80 = DIRECTION ( 'NONE',  ( -0.0000000000000000000, -1.000000000000000000, -0.0000000000000000000 ) ) ;
#81 = APPLICATION_PROTOCOL_DEFINITION ( 'draft international standard', 'automotive_design', 1998, #89 ) ;
#82 = CYLINDRICAL_SURFACE ( 'NONE', #326, 2.100000000000000100 ) ;
#83 = CIRCLE ( 'NONE', #315, 1.000000000000000200 ) ;
#84 = FACE_OUTER_BOUND ( 'NONE', #188, .T. ) ;
#85 = VECTOR ( 'NONE', #214, 1000.000000000000000 ) ;
#86 = LINE ( 'NONE', #51, #78 ) ;
#87 = LINE ( 'NONE', #167, #85 ) ;
#88 = EDGE_CURVE ( 'NONE', #283, #279, #260, .T. ) ;
#89 = APPLICATION_CONTEXT ( 'automotive_design' ) ;
#90 = CIRCLE ( 'NONE', #275, 2.100000000000000100 ) ;
#91 = TOROIDAL_SURFACE ( 'NONE', #311, -1.599999999999999900, 5.000000000000000000 ) ;
#92 =( LENGTH_UNIT ( ) NAMED_UNIT ( * ) SI_UNIT ( .MILLI., .METRE. ) );
#93 = EDGE_LOOP ( 'NONE', ( #228, #162, #182, #95 ) ) ;
#94 = ORIENTED_EDGE ( 'NONE', *, *, #255, .F. ) ;
#95 = ORIENTED_EDGE ( 'NONE', *, *, #335, .F. ) ;
#96 = CARTESIAN_POINT ( 'NONE',  ( 0.0000000000000000000, 10.26291228706919300, 0.0000000000000000000 ) ) ;
#97 = MANIFOLD_SOLID_BREP ( 'Rotation1', #52 ) ;
#98 = CARTESIAN_POINT ( 'NONE',  ( 0.0000000000000000000, 10.26291228706919300, 0.0000000000000000000 ) ) ;
#99 = CARTESIAN_POINT ( 'NONE',  ( 3.830199002524357600E-016, 0.0000000000000000000, 2.855189668059543400 ) ) ;
#100 =( NAMED_UNIT ( * ) SI_UNIT ( $, .STERADIAN. ) SOLID_ANGLE_UNIT ( ) );
#101 = VERTEX_POINT ( 'NONE', #332 ) ;
#102 = ORIENTED_EDGE ( 'NONE', *, *, #88, .T. ) ;
#103 = ORIENTED_EDGE ( 'NONE', *, *, #60, .T. ) ;
#104 = FACE_OUTER_BOUND ( 'NONE', #285, .T. ) ;
#105 = ORIENTED_EDGE ( 'NONE', *, *, #321, .F. ) ;
#106 = VERTEX_POINT ( 'NONE', #70 ) ;
#107 = CIRCLE ( 'NONE', #286, 2.855189668059543400 ) ;
#108 = EDGE_CURVE ( 'NONE', #241, #49, #139, .T. ) ;
#109 =( NAMED_UNIT ( * ) PLANE_ANGLE_UNIT ( ) SI_UNIT ( $, .RADIAN. ) );
#110 = VECTOR ( 'NONE', #48, 1000.000000000000200 ) ;
#111 = CIRCLE ( 'NONE', #76, 2.100000000000000100 ) ;
#112 = CIRCLE ( 'NONE', #314, 3.500000000000000400 ) ;
#113 = CIRCLE ( 'NONE', #304, 5.000000000000000000 ) ;
#114 = DIRECTION ( 'NONE',  ( -0.0000000000000000000, -1.000000000000000000, -0.0000000000000000000 ) ) ;
#115 = FACE_OUTER_BOUND ( 'NONE', #185, .T. ) ;
#116 = CIRCLE ( 'NONE', #269, 2.100000000000000100 ) ;
#117 = CARTESIAN_POINT ( 'NONE',  ( 0.0000000000000000000, 10.26291228706919300, -2.100000000000000100 ) ) ;
#118 = VECTOR ( 'NONE', #47, 1000.000000000000200 ) ;
#119 = CYLINDRICAL_SURFACE ( 'NONE', #330, 2.100000000000000100 ) ;
#120 = LINE ( 'NONE', #45, #118 ) ;
#121 = FACE_OUTER_BOUND ( 'NONE', #307, .T. ) ;
#122 = DIRECTION ( 'NONE',  ( -0.0000000000000000000, -1.000000000000000000, -0.0000000000000000000 ) ) ;
#123 = DIRECTION ( 'NONE',  ( -0.0000000000000000000, -1.000000000000000000, -0.0000000000000000000 ) ) ;
#124 =( LENGTH_UNIT ( ) NAMED_UNIT ( * ) SI_UNIT ( .MILLI., .METRE. ) );
#125 = SURFACE_STYLE_USAGE ( .BOTH. , #130 ) ;
#126 = TOROIDAL_SURFACE ( 'NONE', #288, -1.400000000000000100, 3.500000000000000400 ) ;
#127 = FACE_OUTER_BOUND ( 'NONE', #226, .T. ) ;
#128 = CIRCLE ( 'NONE', #299, 3.400000000000000400 ) ;
#129 = FACE_OUTER_BOUND ( 'NONE', #192, .T. ) ;
#130 = SURFACE_SIDE_STYLE ('',( #73 ) ) ;
#131 = CIRCLE ( 'NONE', #320, 3.500000000000000400 ) ;
#132 = CARTESIAN_POINT ( 'NONE',  ( 0.0000000000000000000, 0.8903945002592068600, 0.0000000000000000000 ) ) ;
#133 = CIRCLE ( 'NONE', #266, 3.400000000000000800 ) ;
#134 = CIRCLE ( 'NONE', #244, 2.855189668059543400 ) ;
#135 = CARTESIAN_POINT ( 'NONE',  ( -1.959434878635765000E-016, 10.26291228706919300, -1.599999999999999900 ) ) ;
#136 = TOROIDAL_SURFACE ( 'NONE', #237, -1.599999999999999900, 5.000000000000000000 ) ;
#137 = DIRECTION ( 'NONE',  ( 0.0000000000000000000, 0.0000000000000000000, -1.000000000000000000 ) ) ;
#138 = VECTOR ( 'NONE', #201, 1000.000000000000000 ) ;
#139 = LINE ( 'NONE', #340, #138 ) ;
#140 = CIRCLE ( 'NONE', #295, 3.400000000000000400 ) ;
#141 = CIRCLE ( 'NONE', #324, 1.000000000000000200 ) ;
#142 = FACE_OUTER_BOUND ( 'NONE', #163, .T. ) ;
#143 = CARTESIAN_POINT ( 'NONE',  ( 0.0000000000000000000, 0.0000000000000000000, 0.0000000000000000000 ) ) ;
#144 = ADVANCED_FACE ( 'NONE', ( #142 ), #136, .T. ) ;
#145 = DIRECTION ( 'NONE',  ( 0.0000000000000000000, 0.0000000000000000000, -1.000000000000000000 ) ) ;
#146 = CARTESIAN_POINT ( 'NONE',  ( 0.0000000000000000000, 0.0000000000000000000, -2.855189668059543400 ) ) ;
#147 = DIRECTION ( 'NONE',  ( 0.0000000000000000000, 0.0000000000000000000, -1.000000000000000000 ) ) ;
#148 = FILL_AREA_STYLE ('',( #55 ) ) ;
#149 = APPLICATION_CONTEXT ( 'automotive_design' ) ;
#150 = CIRCLE ( 'NONE', #254, 2.100000000000000100 ) ;
#151 = CIRCLE ( 'NONE', #259, 3.400000000000000800 ) ;
#152 = CIRCLE ( 'NONE', #256, 5.000000000000000000 ) ;
#153 = DIRECTION ( 'NONE',  ( -1.224646799147353200E-016, 0.0000000000000000000, -1.000000000000000000 ) ) ;
#154 = CARTESIAN_POINT ( 'NONE',  ( 0.0000000000000000000, 0.9000000000000000200, 0.0000000000000000000 ) ) ;
#155 = SURFACE_STYLE_FILL_AREA ( #166 ) ;
#156 = CARTESIAN_POINT ( 'NONE',  ( 0.0000000000000000000, 0.9000000000000000200, -2.100000000000000100 ) ) ;
#157 = PRESENTATION_STYLE_ASSIGNMENT (( #247 ) ) ;
#158 = FACE_OUTER_BOUND ( 'NONE', #263, .T. ) ;
#159 = EDGE_LOOP ( 'NONE', ( #79, #252, #168, #246 ) ) ;
#160 = CARTESIAN_POINT ( 'NONE',  ( 0.0000000000000000000, 0.9000000000000000200, 0.0000000000000000000 ) ) ;
#161 = DIRECTION ( 'NONE',  ( -0.0000000000000000000, -1.000000000000000000, -0.0000000000000000000 ) ) ;
#162 = ORIENTED_EDGE ( 'NONE', *, *, #341, .T. ) ;
#163 = EDGE_LOOP ( 'NONE', ( #175, #7, #6 ) ) ;
#164 = ORIENTED_EDGE ( 'NONE', *, *, #334, .T. ) ;
#165 = DIRECTION ( 'NONE',  ( -0.0000000000000000000, -1.000000000000000000, -0.0000000000000000000 ) ) ;
#166 = FILL_AREA_STYLE ('',( #210 ) ) ;
#167 = CARTESIAN_POINT ( 'NONE',  ( 0.0000000000000000000, 0.0000000000000000000, -3.400000000000000400 ) ) ;
#168 = ORIENTED_EDGE ( 'NONE', *, *, #335, .T. ) ;
#169 = VERTEX_POINT ( 'NONE', #146 ) ;
#170 = ORIENTED_EDGE ( 'NONE', *, *, #108, .F. ) ;
#171 = DIRECTION ( 'NONE',  ( 0.0000000000000000000, 0.0000000000000000000, 1.000000000000000000 ) ) ;
#172 = ORIENTED_EDGE ( 'NONE', *, *, #337, .F. ) ;
#173 = DIRECTION ( 'NONE',  ( -1.000000000000000000, 0.0000000000000000000, 0.0000000000000000000 ) ) ;
#174 = CARTESIAN_POINT ( 'NONE',  ( 0.0000000000000000000, 0.0000000000000000000, 0.0000000000000000000 ) ) ;
#175 = ORIENTED_EDGE ( 'NONE', *, *, #65, .F. ) ;
#176 = CARTESIAN_POINT ( 'NONE',  ( 0.0000000000000000000, 10.26291228706919300, 1.400000000000000100 ) ) ;
#177 = ORIENTED_EDGE ( 'NONE', *, *, #301, .F. ) ;
#178 = CARTESIAN_POINT ( 'NONE',  ( 0.0000000000000000000, 0.9000000000000000200, 0.0000000000000000000 ) ) ;
#179 = ORIENTED_EDGE ( 'NONE', *, *, #278, .T. ) ;
#180 = ORIENTED_EDGE ( 'NONE', *, *, #296, .F. ) ;
#181 = ORIENTED_EDGE ( 'NONE', *, *, #227, .T. ) ;
#182 = ORIENTED_EDGE ( 'NONE', *, *, #222, .F. ) ;
#183 = ORIENTED_EDGE ( 'NONE', *, *, #334, .F. ) ;
#184 = EDGE_LOOP ( 'NONE', ( #58, #242, #338, #208 ) ) ;
#185 = EDGE_LOOP ( 'NONE', ( #94, #198, #103 ) ) ;
#186 = DIRECTION ( 'NONE',  ( -0.0000000000000000000, -1.000000000000000000, -0.0000000000000000000 ) ) ;
#187 = VERTEX_POINT ( 'NONE', #328 ) ;
#188 = EDGE_LOOP ( 'NONE', ( #183, #277, #316, #189 ) ) ;
#189 = ORIENTED_EDGE ( 'NONE', *, *, #88, .F. ) ;
#190 = ORIENTED_EDGE ( 'NONE', *, *, #213, .F. ) ;
#191 = DIRECTION ( 'NONE',  ( 0.0000000000000000000, 0.0000000000000000000, -1.000000000000000000 ) ) ;
#192 = EDGE_LOOP ( 'NONE', ( #194, #8, #164 ) ) ;
#193 = DIRECTION ( 'NONE',  ( -0.0000000000000000000, -1.000000000000000000, -0.0000000000000000000 ) ) ;
#194 = ORIENTED_EDGE ( 'NONE', *, *, #317, .F. ) ;
#195 = PRODUCT_DEFINITION_SHAPE ( 'NONE', 'NONE',  #290 ) ;
#196 = DIRECTION ( 'NONE',  ( 0.0000000000000000000, 0.0000000000000000000, 1.000000000000000000 ) ) ;
#197 = ORIENTED_EDGE ( 'NONE', *, *, #287, .F. ) ;
#198 = ORIENTED_EDGE ( 'NONE', *, *, #317, .T. ) ;
#199 = DIRECTION ( 'NONE',  ( -1.000000000000000000, 0.0000000000000000000, 0.0000000000000000000 ) ) ;
#200 = VERTEX_POINT ( 'NONE', #339 ) ;
#201 = DIRECTION ( 'NONE',  ( -0.0000000000000000000, -1.000000000000000000, -0.0000000000000000000 ) ) ;
#202 = CARTESIAN_POINT ( 'NONE',  ( 0.0000000000000000000, 10.26291228706919300, 1.599999999999999900 ) ) ;
#203 = DIRECTION ( 'NONE',  ( 0.0000000000000000000, 0.0000000000000000000, -1.000000000000000000 ) ) ;
#204 = MECHANICAL_DESIGN_GEOMETRIC_PRESENTATION_REPRESENTATION (  '', ( #310 ), #284 ) ;
#205 = DIRECTION ( 'NONE',  ( -0.0000000000000000000, -1.000000000000000000, -0.0000000000000000000 ) ) ;
#206 = CARTESIAN_POINT ( 'NONE',  ( 0.0000000000000000000, 0.0000000000000000000, 0.0000000000000000000 ) ) ;
#207 = DIRECTION ( 'NONE',  ( -0.0000000000000000000, -1.000000000000000000, -0.0000000000000000000 ) ) ;
#208 = ORIENTED_EDGE ( 'NONE', *, *, #227, .F. ) ;
#209 = ORIENTED_EDGE ( 'NONE', *, *, #60, .F. ) ;
#210 = FILL_AREA_STYLE_COLOUR ( '', #5 ) ;
#211 = VERTEX_POINT ( 'NONE', #306 ) ;
#212 = VERTEX_POINT ( 'NONE', #99 ) ;
#213 = EDGE_CURVE ( 'NONE', #101, #230, #140, .T. ) ;
#214 = DIRECTION ( 'NONE',  ( -0.0000000000000000000, -1.000000000000000000, -0.0000000000000000000 ) ) ;
#215 = AXIS2_PLACEMENT_3D ( 'NONE', #160, #161, #251 ) ;
#216 = DIRECTION ( 'NONE',  ( 0.0000000000000000000, 0.0000000000000000000, -1.000000000000000000 ) ) ;
#217 = CARTESIAN_POINT ( 'NONE',  ( 0.0000000000000000000, 0.9000000000000000200, -2.100000000000000100 ) ) ;
#218 = ORIENTED_EDGE ( 'NONE', *, *, #321, .T. ) ;
#219 = EDGE_LOOP ( 'NONE', ( #262, #177, #309, #313 ) ) ;
#220 = CARTESIAN_POINT ( 'NONE',  ( 0.0000000000000000000, 10.26291228706919300, 0.0000000000000000000 ) ) ;
#221 = DIRECTION ( 'NONE',  ( 0.0000000000000000000, 0.0000000000000000000, -1.000000000000000000 ) ) ;
#222 = EDGE_CURVE ( 'NONE', #211, #106, #133, .T. ) ;
#223 =( NAMED_UNIT ( * ) PLANE_ANGLE_UNIT ( ) SI_UNIT ( $, .RADIAN. ) );
#224 = DIRECTION ( 'NONE',  ( -0.0000000000000000000, -1.000000000000000000, -0.0000000000000000000 ) ) ;
#225 = CARTESIAN_POINT ( 'NONE',  ( 0.0000000000000000000, 0.9000000000000000200, 0.0000000000000000000 ) ) ;
#226 = EDGE_LOOP ( 'NONE', ( #170, #209, #102, #232 ) ) ;
#227 = EDGE_CURVE ( 'NONE', #211, #169, #141, .T. ) ;
#228 = ORIENTED_EDGE ( 'NONE', *, *, #213, .T. ) ;
#229 = ORIENTED_EDGE ( 'NONE', *, *, #65, .T. ) ;
#230 = VERTEX_POINT ( 'NONE', #22 ) ;
#231 = ORIENTED_EDGE ( 'NONE', *, *, #300, .F. ) ;
#232 = ORIENTED_EDGE ( 'NONE', *, *, #301, .T. ) ;
#233 = DIRECTION ( 'NONE',  ( -0.0000000000000000000, -1.000000000000000000, -0.0000000000000000000 ) ) ;
#234 = DIRECTION ( 'NONE',  ( 0.0000000000000000000, 0.0000000000000000000, -1.000000000000000000 ) ) ;
#235 = EDGE_CURVE ( 'NONE', #169, #212, #134, .T. ) ;
#236 =( NAMED_UNIT ( * ) SI_UNIT ( $, .STERADIAN. ) SOLID_ANGLE_UNIT ( ) );
#237 = AXIS2_PLACEMENT_3D ( 'NONE', #292, #323, #10 ) ;
#238 = APPLICATION_PROTOCOL_DEFINITION ( 'draft international standard', 'automotive_design', 1998, #149 ) ;
#239 =( GEOMETRIC_REPRESENTATION_CONTEXT ( 3 ) GLOBAL_UNCERTAINTY_ASSIGNED_CONTEXT ( ( #11 ) ) GLOBAL_UNIT_ASSIGNED_CONTEXT ( ( #92, #223, #308 ) ) REPRESENTATION_CONTEXT ( 'NONE', 'WORKASPACE' ) );
#240 = CARTESIAN_POINT ( 'NONE',  ( 0.0000000000000000000, 10.26291228706919300, 0.0000000000000000000 ) ) ;
#241 = VERTEX_POINT ( 'NONE', #312 ) ;
#242 = ORIENTED_EDGE ( 'NONE', *, *, #337, .T. ) ;
#243 = MECHANICAL_DESIGN_GEOMETRIC_PRESENTATION_REPRESENTATION (  '', ( #253 ), #239 ) ;
#244 = AXIS2_PLACEMENT_3D ( 'NONE', #327, #329, #293 ) ;
#245 = AXIS2_PLACEMENT_3D ( 'NONE', #143, #123, #147 ) ;
#246 = ORIENTED_EDGE ( 'NONE', *, *, #32, .F. ) ;
#247 = SURFACE_STYLE_USAGE ( .BOTH. , #322 ) ;
#248 = PRESENTATION_LAYER_ASSIGNMENT (  '', '', ( #253 ) ) ;
#249 = UNCERTAINTY_MEASURE_WITH_UNIT (LENGTH_MEASURE( 1.000000000000000100E-005 ), #124, 'distance_accuracy_value', 'NONE');
#250 = CARTESIAN_POINT ( 'NONE',  ( -1.714505518806294600E-016, 10.26291228706919300, -1.400000000000000100 ) ) ;
#251 = DIRECTION ( 'NONE',  ( 0.0000000000000000000, 0.0000000000000000000, -1.000000000000000000 ) ) ;
#252 = ORIENTED_EDGE ( 'NONE', *, *, #267, .T. ) ;
#253 = STYLED_ITEM ( 'NONE', ( #157 ), #97 ) ;
#254 = AXIS2_PLACEMENT_3D ( 'NONE', #9, #16, #331 ) ;
#255 = EDGE_CURVE ( 'NONE', #187, #241, #131, .T. ) ;
#256 = AXIS2_PLACEMENT_3D ( 'NONE', #135, #270, #153 ) ;
#257 =( GEOMETRIC_REPRESENTATION_CONTEXT ( 3 ) GLOBAL_UNCERTAINTY_ASSIGNED_CONTEXT ( ( #67 ) ) GLOBAL_UNIT_ASSIGNED_CONTEXT ( ( #27, #25, #236 ) ) REPRESENTATION_CONTEXT ( 'NONE', 'WORKASPACE' ) );
#258 = AXIS2_PLACEMENT_3D ( 'NONE', #53, #59, #56 ) ;
#259 = AXIS2_PLACEMENT_3D ( 'NONE', #64, #319, #271 ) ;
#260 = LINE ( 'NONE', #303, #3 ) ;
#261 = AXIS2_PLACEMENT_3D ( 'NONE', #154, #80, #137 ) ;
#262 = ORIENTED_EDGE ( 'NONE', *, *, #278, .F. ) ;
#263 = EDGE_LOOP ( 'NONE', ( #197, #179, #218, #231 ) ) ;
#264 = DIRECTION ( 'NONE',  ( 0.0000000000000000000, 0.0000000000000000000, -1.000000000000000000 ) ) ;
#265 = AXIS2_PLACEMENT_3D ( 'NONE', #54, #71, #69 ) ;
#266 = AXIS2_PLACEMENT_3D ( 'NONE', #14, #20, #24 ) ;
#267 = EDGE_CURVE ( 'NONE', #230, #101, #128, .T. ) ;
#268 = AXIS2_PLACEMENT_3D ( 'NONE', #132, #165, #145 ) ;
#269 = AXIS2_PLACEMENT_3D ( 'NONE', #225, #224, #221 ) ;
#270 = DIRECTION ( 'NONE',  ( 1.000000000000000000, 0.0000000000000000000, -1.224646799147353200E-016 ) ) ;
#271 = DIRECTION ( 'NONE',  ( 0.0000000000000000000, 0.0000000000000000000, -1.000000000000000000 ) ) ;
#272 = ADVANCED_FACE ( 'NONE', ( #127 ), #119, .F. ) ;
#273 = ADVANCED_FACE ( 'NONE', ( #129 ), #126, .F. ) ;
#274 = ADVANCED_FACE ( 'NONE', ( #43 ), #42, .T. ) ;
#275 = AXIS2_PLACEMENT_3D ( 'NONE', #44, #36, #34 ) ;
#276 = DIRECTION ( 'NONE',  ( 0.0000000000000000000, 0.0000000000000000000, -1.000000000000000000 ) ) ;
#277 = ORIENTED_EDGE ( 'NONE', *, *, #108, .T. ) ;
#278 = EDGE_CURVE ( 'NONE', #49, #212, #120, .T. ) ;
#279 = VERTEX_POINT ( 'NONE', #156 ) ;
#280 = ADVANCED_FACE ( 'NONE', ( #35 ), #29, .F. ) ;
#281 = ADVANCED_FACE ( 'NONE', ( #121 ), #33, .T. ) ;
#282 = ADVANCED_FACE ( 'NONE', ( #40 ), #31, .T. ) ;
#283 = VERTEX_POINT ( 'NONE', #117 ) ;
#284 =( GEOMETRIC_REPRESENTATION_CONTEXT ( 3 ) GLOBAL_UNCERTAINTY_ASSIGNED_CONTEXT ( ( #249 ) ) GLOBAL_UNIT_ASSIGNED_CONTEXT ( ( #124, #109, #100 ) ) REPRESENTATION_CONTEXT ( 'NONE', 'WORKASPACE' ) );
#285 = EDGE_LOOP ( 'NONE', ( #180, #229, #190 ) ) ;
#286 = AXIS2_PLACEMENT_3D ( 'NONE', #206, #205, #203 ) ;
#287 = EDGE_CURVE ( 'NONE', #49, #279, #116, .T. ) ;
#288 = AXIS2_PLACEMENT_3D ( 'NONE', #96, #23, #264 ) ;
#289 = DIRECTION ( 'NONE',  ( -0.0000000000000000000, -1.000000000000000000, -0.0000000000000000000 ) ) ;
#290 = PRODUCT_DEFINITION ( 'UNKNOWN', '', #4, #13 ) ;
#291 = ADVANCED_FACE ( 'NONE', ( #115 ), #30, .F. ) ;
#292 = CARTESIAN_POINT ( 'NONE',  ( 0.0000000000000000000, 10.26291228706919300, 0.0000000000000000000 ) ) ;
#293 = DIRECTION ( 'NONE',  ( 0.0000000000000000000, 0.0000000000000000000, -1.000000000000000000 ) ) ;
#294 = DIRECTION ( 'NONE',  ( 0.0000000000000000000, 0.0000000000000000000, 1.000000000000000000 ) ) ;
#295 = AXIS2_PLACEMENT_3D ( 'NONE', #240, #37, #26 ) ;
#296 = EDGE_CURVE ( 'NONE', #200, #101, #113, .T. ) ;
#297 = ADVANCED_BREP_SHAPE_REPRESENTATION ( '6003754', ( #97, #265 ), #257 ) ;
#298 = AXIS2_PLACEMENT_3D ( 'NONE', #21, #289, #46 ) ;
#299 = AXIS2_PLACEMENT_3D ( 'NONE', #98, #122, #276 ) ;
#300 = EDGE_CURVE ( 'NONE', #279, #169, #39, .T. ) ;
#301 = EDGE_CURVE ( 'NONE', #279, #49, #111, .T. ) ;
#302 = PRESENTATION_LAYER_ASSIGNMENT (  '', '', ( #310 ) ) ;
#303 = CARTESIAN_POINT ( 'NONE',  ( 0.0000000000000000000, 0.0000000000000000000, -2.100000000000000100 ) ) ;
#304 = AXIS2_PLACEMENT_3D ( 'NONE', #202, #199, #196 ) ;
#305 = PRODUCT ( '6003754', '6003754', '', ( #68 ) ) ;
#306 = CARTESIAN_POINT ( 'NONE',  ( 0.0000000000000000000, 0.8903945002592068600, -3.400000000000000400 ) ) ;
#307 = EDGE_LOOP ( 'NONE', ( #172, #344, #181, #105 ) ) ;
#308 =( NAMED_UNIT ( * ) SI_UNIT ( $, .STERADIAN. ) SOLID_ANGLE_UNIT ( ) );
#309 = ORIENTED_EDGE ( 'NONE', *, *, #300, .T. ) ;
#310 = STYLED_ITEM ( 'NONE', ( #72 ), #297 ) ;
#311 = AXIS2_PLACEMENT_3D ( 'NONE', #220, #186, #216 ) ;
#312 = CARTESIAN_POINT ( 'NONE',  ( 2.571758278209442400E-016, 10.26291228706919300, 2.100000000000000100 ) ) ;
#313 = ORIENTED_EDGE ( 'NONE', *, *, #235, .T. ) ;
#314 = AXIS2_PLACEMENT_3D ( 'NONE', #176, #173, #171 ) ;
#315 = AXIS2_PLACEMENT_3D ( 'NONE', #66, #62, #61 ) ;
#316 = ORIENTED_EDGE ( 'NONE', *, *, #287, .T. ) ;
#317 = EDGE_CURVE ( 'NONE', #187, #283, #112, .T. ) ;
#318 = PRODUCT_RELATED_PRODUCT_CATEGORY ( 'part', '', ( #305 ) ) ;
#319 = DIRECTION ( 'NONE',  ( -0.0000000000000000000, -1.000000000000000000, -0.0000000000000000000 ) ) ;
#320 = AXIS2_PLACEMENT_3D ( 'NONE', #250, #41, #343 ) ;
#321 = EDGE_CURVE ( 'NONE', #212, #169, #107, .T. ) ;
#322 = SURFACE_SIDE_STYLE ('',( #155 ) ) ;
#323 = DIRECTION ( 'NONE',  ( -0.0000000000000000000, -1.000000000000000000, -0.0000000000000000000 ) ) ;
#324 = AXIS2_PLACEMENT_3D ( 'NONE', #19, #38, #294 ) ;
#325 = ADVANCED_FACE ( 'NONE', ( #104 ), #91, .T. ) ;
#326 = AXIS2_PLACEMENT_3D ( 'NONE', #28, #233, #234 ) ;
#327 = CARTESIAN_POINT ( 'NONE',  ( 0.0000000000000000000, 0.0000000000000000000, 0.0000000000000000000 ) ) ;
#328 = CARTESIAN_POINT ( 'NONE',  ( -2.168404344971008900E-016, 13.47071527353828400, 0.0000000000000000000 ) ) ;
#329 = DIRECTION ( 'NONE',  ( -0.0000000000000000000, -1.000000000000000000, -0.0000000000000000000 ) ) ;
#330 = AXIS2_PLACEMENT_3D ( 'NONE', #174, #207, #333 ) ;
#331 = DIRECTION ( 'NONE',  ( 0.0000000000000000000, 0.0000000000000000000, -1.000000000000000000 ) ) ;
#332 = CARTESIAN_POINT ( 'NONE',  ( 0.0000000000000000000, 10.26291228706919300, -3.400000000000000400 ) ) ;
#333 = DIRECTION ( 'NONE',  ( 0.0000000000000000000, 0.0000000000000000000, -1.000000000000000000 ) ) ;
#334 = EDGE_CURVE ( 'NONE', #241, #283, #90, .T. ) ;
#335 = EDGE_CURVE ( 'NONE', #101, #211, #87, .T. ) ;
#336 = ADVANCED_FACE ( 'NONE', ( #84 ), #82, .F. ) ;
#337 = EDGE_CURVE ( 'NONE', #106, #212, #83, .T. ) ;
#338 = ORIENTED_EDGE ( 'NONE', *, *, #235, .F. ) ;
#339 = CARTESIAN_POINT ( 'NONE',  ( 0.0000000000000000000, 15.00000000000000000, 0.0000000000000000000 ) ) ;
#340 = CARTESIAN_POINT ( 'NONE',  ( 2.571758278209442000E-016, 0.0000000000000000000, 2.100000000000000100 ) ) ;
#341 = EDGE_CURVE ( 'NONE', #230, #106, #86, .T. ) ;
#342 = ADVANCED_FACE ( 'NONE', ( #75 ), #74, .T. ) ;
#343 = DIRECTION ( 'NONE',  ( -1.224646799147353200E-016, 0.0000000000000000000, -1.000000000000000000 ) ) ;
#344 = ORIENTED_EDGE ( 'NONE', *, *, #32, .T. ) ;
ENDSEC;
END-ISO-10303-21;
