ISO-10303-21;
HEADER;
/* Generated by software containing ST-Developer
 * from STEP Tools, Inc. (www.steptools.com) 
 */
/* OPTION: using custom schema-name function */

FILE_DESCRIPTION(
/* description */ (''),
/* implementation_level */ '2;1');

FILE_NAME(
/* name */ '3141314',
/* time_stamp */ '2014-03-21T13:59:37+01:00',
/* author */ (''),
/* organization */ (''),
/* preprocessor_version */ 'ST-DEVELOPER v15',
/* originating_system */ '',
/* authorisation */ '');

FILE_SCHEMA (('AUTOMOTIVE_DESIGN'));
ENDSEC;

DATA;
#10=SHAPE_REPRESENTATION_RELATIONSHIP('','',#77,#13);
#11=PRESENTATION_LAYER_ASSIGNMENT('Default','',(#12));
#12=MANIFOLD_SOLID_BREP('brep_1',#14);
#13=ADVANCED_BREP_SHAPE_REPRESENTATION('brep_rep_0',(#12,#81),#76);
#14=CLOSED_SHELL('',(#15,#16,#17,#18));
#15=ADVANCED_FACE('',(#19),#57,.T.);
#16=ADVANCED_FACE('',(#20),#55,.T.);
#17=ADVANCED_FACE('',(#21),#56,.T.);
#18=ADVANCED_FACE('',(#22),#58,.T.);
#19=FACE_OUTER_BOUND('',#23,.T.);
#20=FACE_OUTER_BOUND('',#24,.T.);
#21=FACE_OUTER_BOUND('',#25,.T.);
#22=FACE_OUTER_BOUND('',#26,.T.);
#23=EDGE_LOOP('',(#27,#28,#29,#30));
#24=EDGE_LOOP('',(#31,#32));
#25=EDGE_LOOP('',(#33,#34));
#26=EDGE_LOOP('',(#35,#36,#37,#38));
#27=ORIENTED_EDGE('',*,*,#42,.T.);
#28=ORIENTED_EDGE('',*,*,#41,.F.);
#29=ORIENTED_EDGE('',*,*,#40,.F.);
#30=ORIENTED_EDGE('',*,*,#39,.T.);
#31=ORIENTED_EDGE('',*,*,#43,.F.);
#32=ORIENTED_EDGE('',*,*,#39,.F.);
#33=ORIENTED_EDGE('',*,*,#41,.T.);
#34=ORIENTED_EDGE('',*,*,#44,.T.);
#35=ORIENTED_EDGE('',*,*,#43,.T.);
#36=ORIENTED_EDGE('',*,*,#40,.T.);
#37=ORIENTED_EDGE('',*,*,#44,.F.);
#38=ORIENTED_EDGE('',*,*,#42,.F.);
#39=EDGE_CURVE('',#51,#53,#45,.T.);
#40=EDGE_CURVE('',#51,#52,#46,.T.);
#41=EDGE_CURVE('',#52,#54,#47,.T.);
#42=EDGE_CURVE('',#53,#54,#48,.T.);
#43=EDGE_CURVE('',#53,#51,#49,.T.);
#44=EDGE_CURVE('',#54,#52,#50,.T.);
#45=(
BOUNDED_CURVE()
B_SPLINE_CURVE(2,(#115,#116,#117,#118,#119),.UNSPECIFIED.,.F.,.F.)
B_SPLINE_CURVE_WITH_KNOTS((3,2,3),(0.,9.42477796076938,18.8495559215388),
 .UNSPECIFIED.)
CURVE()
GEOMETRIC_REPRESENTATION_ITEM()
RATIONAL_B_SPLINE_CURVE((1.,0.707106781186548,1.,0.707106781186548,1.))
REPRESENTATION_ITEM('')
);
#46=(
BOUNDED_CURVE()
B_SPLINE_CURVE(1,(#120,#121),.UNSPECIFIED.,.F.,.F.)
B_SPLINE_CURVE_WITH_KNOTS((2,2),(0.,1000.),.UNSPECIFIED.)
CURVE()
GEOMETRIC_REPRESENTATION_ITEM()
RATIONAL_B_SPLINE_CURVE((1.,1.))
REPRESENTATION_ITEM('')
);
#47=(
BOUNDED_CURVE()
B_SPLINE_CURVE(2,(#122,#123,#124,#125,#126),.UNSPECIFIED.,.F.,.F.)
B_SPLINE_CURVE_WITH_KNOTS((3,2,3),(0.,9.42477796076938,18.8495559215388),
 .UNSPECIFIED.)
CURVE()
GEOMETRIC_REPRESENTATION_ITEM()
RATIONAL_B_SPLINE_CURVE((1.,0.707106781186548,1.,0.707106781186548,1.))
REPRESENTATION_ITEM('')
);
#48=(
BOUNDED_CURVE()
B_SPLINE_CURVE(1,(#127,#128),.UNSPECIFIED.,.F.,.F.)
B_SPLINE_CURVE_WITH_KNOTS((2,2),(0.,1000.),.UNSPECIFIED.)
CURVE()
GEOMETRIC_REPRESENTATION_ITEM()
RATIONAL_B_SPLINE_CURVE((1.,1.))
REPRESENTATION_ITEM('')
);
#49=(
BOUNDED_CURVE()
B_SPLINE_CURVE(2,(#129,#130,#131,#132,#133),.UNSPECIFIED.,.F.,.F.)
B_SPLINE_CURVE_WITH_KNOTS((3,2,3),(18.8495559215388,28.2743338823081,37.6991118430775),
 .UNSPECIFIED.)
CURVE()
GEOMETRIC_REPRESENTATION_ITEM()
RATIONAL_B_SPLINE_CURVE((1.,0.707106781186548,1.,0.707106781186548,1.))
REPRESENTATION_ITEM('')
);
#50=(
BOUNDED_CURVE()
B_SPLINE_CURVE(2,(#134,#135,#136,#137,#138),.UNSPECIFIED.,.F.,.F.)
B_SPLINE_CURVE_WITH_KNOTS((3,2,3),(18.8495559215388,28.2743338823081,37.6991118430775),
 .UNSPECIFIED.)
CURVE()
GEOMETRIC_REPRESENTATION_ITEM()
RATIONAL_B_SPLINE_CURVE((1.,0.707106781186548,1.,0.707106781186548,1.))
REPRESENTATION_ITEM('')
);
#51=VERTEX_POINT('',#111);
#52=VERTEX_POINT('',#112);
#53=VERTEX_POINT('',#113);
#54=VERTEX_POINT('',#114);
#55=PLANE('',#79);
#56=PLANE('',#80);
#57=(
BOUNDED_SURFACE()
B_SPLINE_SURFACE(2,1,((#89,#90),(#91,#92),(#93,#94),(#95,#96),(#97,#98)),
 .UNSPECIFIED.,.F.,.F.,.F.)
B_SPLINE_SURFACE_WITH_KNOTS((3,2,3),(2,2),(0.,9.42477796076938,18.8495559215388),
(0.,1000.),.UNSPECIFIED.)
GEOMETRIC_REPRESENTATION_ITEM()
RATIONAL_B_SPLINE_SURFACE(((1.,1.),(0.707106781186548,0.707106781186548),
(1.,1.),(0.707106781186548,0.707106781186548),(1.,1.)))
REPRESENTATION_ITEM('')
SURFACE()
);
#58=(
BOUNDED_SURFACE()
B_SPLINE_SURFACE(2,1,((#101,#102),(#103,#104),(#105,#106),(#107,#108),(#109,
#110)),.UNSPECIFIED.,.F.,.F.,.F.)
B_SPLINE_SURFACE_WITH_KNOTS((3,2,3),(2,2),(18.8495559215388,28.2743338823081,
37.6991118430775),(0.,1000.),.UNSPECIFIED.)
GEOMETRIC_REPRESENTATION_ITEM()
RATIONAL_B_SPLINE_SURFACE(((1.,1.),(0.707106781186548,0.707106781186548),
(1.,1.),(0.707106781186548,0.707106781186548),(1.,1.)))
REPRESENTATION_ITEM('')
SURFACE()
);
#59=SHAPE_DEFINITION_REPRESENTATION(#60,#77);
#60=PRODUCT_DEFINITION_SHAPE('Document','',#62);
#61=PRODUCT_DEFINITION_CONTEXT('3D Mechanical Parts',#66,'design');
#62=PRODUCT_DEFINITION('A','First version',#63,#61);
#63=PRODUCT_DEFINITION_FORMATION_WITH_SPECIFIED_SOURCE('A',
'First version',#68,.MADE.);
#64=PRODUCT_RELATED_PRODUCT_CATEGORY('tool','tool',(#68));
#65=APPLICATION_PROTOCOL_DEFINITION('Draft International Standard',
'automotive_design',1999,#66);
#66=APPLICATION_CONTEXT(
'data for automotive mechanical design processes');
#67=PRODUCT_CONTEXT('3D Mechanical Parts',#66,'mechanical');
#68=PRODUCT('Document','Document','Rhino converted to STEP',(#67));
#69=(
LENGTH_UNIT()
NAMED_UNIT(*)
SI_UNIT(.MILLI.,.METRE.)
);
#70=(
NAMED_UNIT(*)
PLANE_ANGLE_UNIT()
SI_UNIT($,.RADIAN.)
);
#71=DIMENSIONAL_EXPONENTS(0.,0.,0.,0.,0.,0.,0.);
#72=PLANE_ANGLE_MEASURE_WITH_UNIT(PLANE_ANGLE_MEASURE(0.01745329252),#70);
#73=(
CONVERSION_BASED_UNIT('DEGREES',#72)
NAMED_UNIT(#71)
PLANE_ANGLE_UNIT()
);
#74=(
NAMED_UNIT(*)
SI_UNIT($,.STERADIAN.)
SOLID_ANGLE_UNIT()
);
#75=UNCERTAINTY_MEASURE_WITH_UNIT(LENGTH_MEASURE(0.01),#69,
'DISTANCE_ACCURACY_VALUE',
'Maximum model space distance between geometric entities at asserted c
onnectivities');
#76=(
GEOMETRIC_REPRESENTATION_CONTEXT(3)
GLOBAL_UNCERTAINTY_ASSIGNED_CONTEXT((#75))
GLOBAL_UNIT_ASSIGNED_CONTEXT((#74,#73,#69))
REPRESENTATION_CONTEXT('ID1','3D')
);
#77=SHAPE_REPRESENTATION('Document',(#78,#81),#76);
#78=AXIS2_PLACEMENT_3D('',#88,#82,#83);
#79=AXIS2_PLACEMENT_3D('',#99,#84,$);
#80=AXIS2_PLACEMENT_3D('',#100,#85,$);
#81=AXIS2_PLACEMENT_3D('',#139,#86,#87);
#82=DIRECTION('',(0.,0.,1.));
#83=DIRECTION('',(1.,0.,0.));
#84=DIRECTION('',(0.,-1.,0.));
#85=DIRECTION('',(0.,1.,0.));
#86=DIRECTION('',(0.,0.,1.));
#87=DIRECTION('',(1.,0.,0.));
#88=CARTESIAN_POINT('',(0.,0.,0.));
#89=CARTESIAN_POINT('',(6.,-1000.,0.));
#90=CARTESIAN_POINT('',(6.,0.,0.));
#91=CARTESIAN_POINT('',(6.,-1000.,-6.));
#92=CARTESIAN_POINT('',(6.,0.,-6.));
#93=CARTESIAN_POINT('',(3.67394039744206E-16,-1000.,-6.));
#94=CARTESIAN_POINT('',(3.67394039744206E-16,0.,-6.));
#95=CARTESIAN_POINT('',(-6.,-1000.,-6.));
#96=CARTESIAN_POINT('',(-6.,0.,-6.));
#97=CARTESIAN_POINT('',(-6.,-1000.,-7.34788079488412E-16));
#98=CARTESIAN_POINT('',(-6.,0.,-7.34788079488412E-16));
#99=CARTESIAN_POINT('',(-7.5,-1000.,7.5));
#100=CARTESIAN_POINT('',(-7.5,0.,7.5));
#101=CARTESIAN_POINT('',(-6.,-1000.,-7.34788079488412E-16));
#102=CARTESIAN_POINT('',(-6.,0.,-7.34788079488412E-16));
#103=CARTESIAN_POINT('',(-6.,-1000.,6.));
#104=CARTESIAN_POINT('',(-6.,0.,6.));
#105=CARTESIAN_POINT('',(-1.10218211923262E-15,-1000.,6.));
#106=CARTESIAN_POINT('',(-1.10218211923262E-15,0.,6.));
#107=CARTESIAN_POINT('',(6.,-1000.,6.));
#108=CARTESIAN_POINT('',(6.,0.,6.));
#109=CARTESIAN_POINT('',(6.,-1000.,0.));
#110=CARTESIAN_POINT('',(6.,0.,0.));
#111=CARTESIAN_POINT('',(6.,-1000.,0.));
#112=CARTESIAN_POINT('',(6.,0.,0.));
#113=CARTESIAN_POINT('',(-6.,-1000.,-7.34788079488412E-16));
#114=CARTESIAN_POINT('',(-6.,0.,-7.34788079488412E-16));
#115=CARTESIAN_POINT('',(6.,-1000.,0.));
#116=CARTESIAN_POINT('',(6.,-1000.,-6.));
#117=CARTESIAN_POINT('',(3.67394039744206E-16,-1000.,-6.));
#118=CARTESIAN_POINT('',(-6.,-1000.,-6.));
#119=CARTESIAN_POINT('',(-6.,-1000.,-7.34788079488412E-16));
#120=CARTESIAN_POINT('',(6.,-1000.,0.));
#121=CARTESIAN_POINT('',(6.,0.,0.));
#122=CARTESIAN_POINT('',(6.,0.,0.));
#123=CARTESIAN_POINT('',(6.,0.,-6.));
#124=CARTESIAN_POINT('',(3.67394039744206E-16,0.,-6.));
#125=CARTESIAN_POINT('',(-6.,0.,-6.));
#126=CARTESIAN_POINT('',(-6.,0.,-7.34788079488412E-16));
#127=CARTESIAN_POINT('',(-6.,-1000.,-7.34788079488412E-16));
#128=CARTESIAN_POINT('',(-6.,0.,-7.34788079488412E-16));
#129=CARTESIAN_POINT('',(-6.,-1000.,-7.34788079488412E-16));
#130=CARTESIAN_POINT('',(-6.,-1000.,6.));
#131=CARTESIAN_POINT('',(-1.10218211923262E-15,-1000.,6.));
#132=CARTESIAN_POINT('',(6.,-1000.,6.));
#133=CARTESIAN_POINT('',(6.,-1000.,0.));
#134=CARTESIAN_POINT('',(-6.,0.,-7.34788079488412E-16));
#135=CARTESIAN_POINT('',(-6.,0.,6.));
#136=CARTESIAN_POINT('',(-1.10218211923262E-15,0.,6.));
#137=CARTESIAN_POINT('',(6.,0.,6.));
#138=CARTESIAN_POINT('',(6.,0.,0.));
#139=CARTESIAN_POINT('',(0.,0.,0.));
ENDSEC;
END-ISO-10303-21;
