ISO-10303-21;
HEADER;
FILE_DESCRIPTION((''),'2;1');
FILE_NAME('2046774','2015-06-18T',('AndreasKeweloh'),(''),
'CREO PARAMETRIC BY PTC INC, 2015080','CREO PARAMETRIC BY PTC INC, 2015080','');
FILE_SCHEMA(('CONFIG_CONTROL_DESIGN'));
ENDSEC;
DATA;
#1=CARTESIAN_POINT('',(0.E0,0.E0,0.E0));
#2=DIRECTION('',(1.E0,0.E0,0.E0));
#3=DIRECTION('',(0.E0,0.E0,1.E0));
#4=AXIS2_PLACEMENT_3D('',#1,#2,#3);
#6=CARTESIAN_POINT('',(-1.529705854078E0,0.E0,0.E0));
#7=DIRECTION('',(-1.E0,0.E0,0.E0));
#8=DIRECTION('',(0.E0,0.E0,-1.E0));
#9=AXIS2_PLACEMENT_3D('',#6,#7,#8);
#11=CARTESIAN_POINT('',(0.E0,0.E0,-2.175E1));
#12=DIRECTION('',(0.E0,-1.E0,0.E0));
#13=DIRECTION('',(0.E0,0.E0,1.E0));
#14=AXIS2_PLACEMENT_3D('',#11,#12,#13);
#16=CARTESIAN_POINT('',(0.E0,0.E0,-2.175E1));
#17=DIRECTION('',(0.E0,-1.E0,0.E0));
#18=DIRECTION('',(6.798692684790E-1,0.E0,7.333333333333E-1));
#19=AXIS2_PLACEMENT_3D('',#16,#17,#18);
#21=CARTESIAN_POINT('',(1.529705854078E0,0.E0,0.E0));
#22=DIRECTION('',(1.E0,0.E0,0.E0));
#23=DIRECTION('',(0.E0,0.E0,1.E0));
#24=AXIS2_PLACEMENT_3D('',#21,#22,#23);
#26=CARTESIAN_POINT('',(0.E0,0.E0,2.175E1));
#27=DIRECTION('',(0.E0,1.E0,0.E0));
#28=DIRECTION('',(6.798692684790E-1,0.E0,-7.333333333333E-1));
#29=AXIS2_PLACEMENT_3D('',#26,#27,#28);
#31=CARTESIAN_POINT('',(1.529705854078E0,0.E0,0.E0));
#32=DIRECTION('',(1.E0,0.E0,0.E0));
#33=DIRECTION('',(0.E0,0.E0,-1.E0));
#34=AXIS2_PLACEMENT_3D('',#31,#32,#33);
#36=DIRECTION('',(1.E0,0.E0,0.E0));
#37=VECTOR('',#36,3.837029414592E1);
#38=CARTESIAN_POINT('',(1.529705854078E0,0.E0,-2.01E1));
#39=LINE('',#38,#37);
#40=DIRECTION('',(1.E0,0.E0,0.E0));
#41=VECTOR('',#40,3.837029414592E1);
#42=CARTESIAN_POINT('',(1.529705854078E0,0.E0,2.01E1));
#43=LINE('',#42,#41);
#44=CARTESIAN_POINT('',(3.99E1,0.E0,-2.02E1));
#45=DIRECTION('',(0.E0,-1.E0,0.E0));
#46=DIRECTION('',(1.E0,0.E0,0.E0));
#47=AXIS2_PLACEMENT_3D('',#44,#45,#46);
#49=CARTESIAN_POINT('',(3.99E1,0.E0,0.E0));
#50=DIRECTION('',(-1.E0,0.E0,0.E0));
#51=DIRECTION('',(0.E0,0.E0,-1.E0));
#52=AXIS2_PLACEMENT_3D('',#49,#50,#51);
#54=CARTESIAN_POINT('',(3.99E1,0.E0,0.E0));
#55=DIRECTION('',(-1.E0,0.E0,0.E0));
#56=DIRECTION('',(0.E0,0.E0,1.E0));
#57=AXIS2_PLACEMENT_3D('',#54,#55,#56);
#59=CARTESIAN_POINT('',(3.99E1,0.E0,2.02E1));
#60=DIRECTION('',(0.E0,1.E0,0.E0));
#61=DIRECTION('',(1.E0,0.E0,0.E0));
#62=AXIS2_PLACEMENT_3D('',#59,#60,#61);
#64=CARTESIAN_POINT('',(4.E1,0.E0,0.E0));
#65=DIRECTION('',(1.E0,0.E0,0.E0));
#66=DIRECTION('',(0.E0,0.E0,1.E0));
#67=AXIS2_PLACEMENT_3D('',#64,#65,#66);
#69=CARTESIAN_POINT('',(4.E1,0.E0,0.E0));
#70=DIRECTION('',(1.E0,0.E0,0.E0));
#71=DIRECTION('',(0.E0,0.E0,-1.E0));
#72=AXIS2_PLACEMENT_3D('',#69,#70,#71);
#74=CARTESIAN_POINT('',(4.E1,0.E0,0.E0));
#75=DIRECTION('',(-1.E0,0.E0,0.E0));
#76=DIRECTION('',(0.E0,0.E0,1.E0));
#77=AXIS2_PLACEMENT_3D('',#74,#75,#76);
#79=CARTESIAN_POINT('',(4.E1,0.E0,0.E0));
#80=DIRECTION('',(-1.E0,0.E0,0.E0));
#81=DIRECTION('',(0.E0,0.E0,-1.E0));
#82=AXIS2_PLACEMENT_3D('',#79,#80,#81);
#84=CARTESIAN_POINT('',(3.99E1,0.E0,-2.125E1));
#85=DIRECTION('',(0.E0,-1.E0,0.E0));
#86=DIRECTION('',(0.E0,0.E0,-1.E0));
#87=AXIS2_PLACEMENT_3D('',#84,#85,#86);
#89=CARTESIAN_POINT('',(3.99E1,0.E0,0.E0));
#90=DIRECTION('',(1.E0,0.E0,0.E0));
#91=DIRECTION('',(0.E0,0.E0,1.E0));
#92=AXIS2_PLACEMENT_3D('',#89,#90,#91);
#94=CARTESIAN_POINT('',(3.99E1,0.E0,2.125E1));
#95=DIRECTION('',(0.E0,1.E0,0.E0));
#96=DIRECTION('',(0.E0,0.E0,1.E0));
#97=AXIS2_PLACEMENT_3D('',#94,#95,#96);
#99=CARTESIAN_POINT('',(3.99E1,0.E0,0.E0));
#100=DIRECTION('',(1.E0,0.E0,0.E0));
#101=DIRECTION('',(0.E0,0.E0,-1.E0));
#102=AXIS2_PLACEMENT_3D('',#99,#100,#101);
#104=DIRECTION('',(1.E0,0.E0,0.E0));
#105=VECTOR('',#104,3.898348486101E1);
#106=CARTESIAN_POINT('',(9.165151389912E-1,0.E0,2.135E1));
#107=LINE('',#106,#105);
#108=DIRECTION('',(1.E0,0.E0,0.E0));
#109=VECTOR('',#108,3.898348486101E1);
#110=CARTESIAN_POINT('',(9.165151389912E-1,0.E0,-2.135E1));
#111=LINE('',#110,#109);
#112=CARTESIAN_POINT('',(0.E0,0.E0,0.E0));
#113=DIRECTION('',(1.E0,0.E0,0.E0));
#114=DIRECTION('',(0.E0,0.E0,1.E0));
#115=AXIS2_PLACEMENT_3D('',#112,#113,#114);
#117=CARTESIAN_POINT('',(0.E0,0.E0,2.175E1));
#118=DIRECTION('',(0.E0,1.E0,0.E0));
#119=DIRECTION('',(9.165151389912E-1,0.E0,-4.E-1));
#120=AXIS2_PLACEMENT_3D('',#117,#118,#119);
#122=CARTESIAN_POINT('',(9.165151389912E-1,0.E0,0.E0));
#123=DIRECTION('',(-1.E0,0.E0,0.E0));
#124=DIRECTION('',(0.E0,0.E0,-1.E0));
#125=AXIS2_PLACEMENT_3D('',#122,#123,#124);
#127=CARTESIAN_POINT('',(-9.165151389912E-1,0.E0,0.E0));
#128=DIRECTION('',(1.E0,0.E0,0.E0));
#129=DIRECTION('',(0.E0,0.E0,1.E0));
#130=AXIS2_PLACEMENT_3D('',#127,#128,#129);
#132=CARTESIAN_POINT('',(0.E0,0.E0,2.175E1));
#133=DIRECTION('',(0.E0,1.E0,0.E0));
#134=DIRECTION('',(0.E0,0.E0,-1.E0));
#135=AXIS2_PLACEMENT_3D('',#132,#133,#134);
#137=CARTESIAN_POINT('',(-9.165151389912E-1,0.E0,0.E0));
#138=DIRECTION('',(1.E0,0.E0,0.E0));
#139=DIRECTION('',(0.E0,0.E0,-1.E0));
#140=AXIS2_PLACEMENT_3D('',#137,#138,#139);
#142=CARTESIAN_POINT('',(0.E0,0.E0,-2.175E1));
#143=DIRECTION('',(0.E0,-1.E0,0.E0));
#144=DIRECTION('',(0.E0,0.E0,1.E0));
#145=AXIS2_PLACEMENT_3D('',#142,#143,#144);
#147=DIRECTION('',(1.E0,0.E0,0.E0));
#148=VECTOR('',#147,3.898348486101E1);
#149=CARTESIAN_POINT('',(-3.99E1,0.E0,2.135E1));
#150=LINE('',#149,#148);
#151=DIRECTION('',(1.E0,0.E0,0.E0));
#152=VECTOR('',#151,3.898348486101E1);
#153=CARTESIAN_POINT('',(-3.99E1,0.E0,-2.135E1));
#154=LINE('',#153,#152);
#155=CARTESIAN_POINT('',(-3.99E1,0.E0,2.125E1));
#156=DIRECTION('',(0.E0,-1.E0,0.E0));
#157=DIRECTION('',(0.E0,0.E0,1.E0));
#158=AXIS2_PLACEMENT_3D('',#155,#156,#157);
#160=CARTESIAN_POINT('',(-3.99E1,0.E0,0.E0));
#161=DIRECTION('',(-1.E0,0.E0,0.E0));
#162=DIRECTION('',(0.E0,0.E0,-1.E0));
#163=AXIS2_PLACEMENT_3D('',#160,#161,#162);
#165=CARTESIAN_POINT('',(-3.99E1,0.E0,-2.125E1));
#166=DIRECTION('',(0.E0,1.E0,0.E0));
#167=DIRECTION('',(0.E0,0.E0,-1.E0));
#168=AXIS2_PLACEMENT_3D('',#165,#166,#167);
#170=CARTESIAN_POINT('',(-3.99E1,0.E0,0.E0));
#171=DIRECTION('',(-1.E0,0.E0,0.E0));
#172=DIRECTION('',(0.E0,0.E0,1.E0));
#173=AXIS2_PLACEMENT_3D('',#170,#171,#172);
#175=CARTESIAN_POINT('',(-4.E1,0.E0,0.E0));
#176=DIRECTION('',(-1.E0,0.E0,0.E0));
#177=DIRECTION('',(0.E0,0.E0,-1.E0));
#178=AXIS2_PLACEMENT_3D('',#175,#176,#177);
#180=CARTESIAN_POINT('',(-4.E1,0.E0,0.E0));
#181=DIRECTION('',(-1.E0,0.E0,0.E0));
#182=DIRECTION('',(0.E0,0.E0,1.E0));
#183=AXIS2_PLACEMENT_3D('',#180,#181,#182);
#185=CARTESIAN_POINT('',(-4.E1,0.E0,0.E0));
#186=DIRECTION('',(1.E0,0.E0,0.E0));
#187=DIRECTION('',(0.E0,0.E0,-1.E0));
#188=AXIS2_PLACEMENT_3D('',#185,#186,#187);
#190=CARTESIAN_POINT('',(-4.E1,0.E0,0.E0));
#191=DIRECTION('',(1.E0,0.E0,0.E0));
#192=DIRECTION('',(0.E0,0.E0,1.E0));
#193=AXIS2_PLACEMENT_3D('',#190,#191,#192);
#195=CARTESIAN_POINT('',(-3.99E1,0.E0,0.E0));
#196=DIRECTION('',(1.E0,0.E0,0.E0));
#197=DIRECTION('',(0.E0,0.E0,-1.E0));
#198=AXIS2_PLACEMENT_3D('',#195,#196,#197);
#200=CARTESIAN_POINT('',(-3.99E1,0.E0,-2.02E1));
#201=DIRECTION('',(0.E0,1.E0,0.E0));
#202=DIRECTION('',(-1.E0,0.E0,0.E0));
#203=AXIS2_PLACEMENT_3D('',#200,#201,#202);
#205=DIRECTION('',(1.E0,0.E0,0.E0));
#206=VECTOR('',#205,3.837029414592E1);
#207=CARTESIAN_POINT('',(-3.99E1,0.E0,-2.01E1));
#208=LINE('',#207,#206);
#209=DIRECTION('',(1.E0,0.E0,0.E0));
#210=VECTOR('',#209,3.837029414592E1);
#211=CARTESIAN_POINT('',(-3.99E1,0.E0,2.01E1));
#212=LINE('',#211,#210);
#213=CARTESIAN_POINT('',(-3.99E1,0.E0,2.02E1));
#214=DIRECTION('',(0.E0,-1.E0,0.E0));
#215=DIRECTION('',(-1.E0,0.E0,0.E0));
#216=AXIS2_PLACEMENT_3D('',#213,#214,#215);
#218=CARTESIAN_POINT('',(-3.99E1,0.E0,0.E0));
#219=DIRECTION('',(1.E0,0.E0,0.E0));
#220=DIRECTION('',(0.E0,0.E0,1.E0));
#221=AXIS2_PLACEMENT_3D('',#218,#219,#220);
#223=CARTESIAN_POINT('',(0.E0,0.E0,0.E0));
#224=DIRECTION('',(1.E0,0.E0,0.E0));
#225=DIRECTION('',(0.E0,0.E0,-1.E0));
#226=AXIS2_PLACEMENT_3D('',#223,#224,#225);
#228=CARTESIAN_POINT('',(-1.529705854078E0,0.E0,0.E0));
#229=DIRECTION('',(-1.E0,0.E0,0.E0));
#230=DIRECTION('',(0.E0,0.E0,1.E0));
#231=AXIS2_PLACEMENT_3D('',#228,#229,#230);
#233=CARTESIAN_POINT('',(0.E0,0.E0,2.175E1));
#234=DIRECTION('',(0.E0,1.E0,0.E0));
#235=DIRECTION('',(0.E0,0.E0,-1.E0));
#236=AXIS2_PLACEMENT_3D('',#233,#234,#235);
#238=CARTESIAN_POINT('',(0.E0,0.E0,0.E0));
#239=DIRECTION('',(1.E0,0.E0,0.E0));
#240=DIRECTION('',(0.E0,0.E0,-1.E0));
#241=AXIS2_PLACEMENT_3D('',#238,#239,#240);
#243=CARTESIAN_POINT('',(0.E0,0.E0,-2.175E1));
#244=DIRECTION('',(0.E0,-1.E0,0.E0));
#245=DIRECTION('',(9.165151389912E-1,0.E0,4.E-1));
#246=AXIS2_PLACEMENT_3D('',#243,#244,#245);
#248=CARTESIAN_POINT('',(9.165151389912E-1,0.E0,0.E0));
#249=DIRECTION('',(-1.E0,0.E0,0.E0));
#250=DIRECTION('',(0.E0,0.E0,1.E0));
#251=AXIS2_PLACEMENT_3D('',#248,#249,#250);
#253=CARTESIAN_POINT('',(-4.E1,0.E0,-2.02E1));
#254=CARTESIAN_POINT('',(-3.99E1,0.E0,-2.01E1));
#255=VERTEX_POINT('',#253);
#256=VERTEX_POINT('',#254);
#257=CARTESIAN_POINT('',(3.99E1,0.E0,2.01E1));
#258=CARTESIAN_POINT('',(3.99E1,0.E0,-2.01E1));
#259=VERTEX_POINT('',#257);
#260=VERTEX_POINT('',#258);
#261=CARTESIAN_POINT('',(1.529705854078E0,0.E0,2.01E1));
#262=VERTEX_POINT('',#261);
#263=CARTESIAN_POINT('',(9.165151389912E-1,0.E0,2.135E1));
#264=CARTESIAN_POINT('',(9.165151389912E-1,0.E0,-2.135E1));
#265=VERTEX_POINT('',#263);
#266=VERTEX_POINT('',#264);
#267=CARTESIAN_POINT('',(0.E0,0.E0,2.075E1));
#268=CARTESIAN_POINT('',(-9.165151389912E-1,0.E0,2.135E1));
#269=VERTEX_POINT('',#267);
#270=VERTEX_POINT('',#268);
#271=CARTESIAN_POINT('',(-4.E1,0.E0,2.02E1));
#272=CARTESIAN_POINT('',(-3.99E1,0.E0,2.01E1));
#273=VERTEX_POINT('',#271);
#274=VERTEX_POINT('',#272);
#275=CARTESIAN_POINT('',(-4.E1,0.E0,-2.125E1));
#276=CARTESIAN_POINT('',(-4.E1,1.271870329164E-14,2.125E1));
#277=VERTEX_POINT('',#275);
#278=VERTEX_POINT('',#276);
#279=CARTESIAN_POINT('',(1.529705854078E0,0.E0,-2.01E1));
#280=VERTEX_POINT('',#279);
#281=CARTESIAN_POINT('',(0.E0,0.E0,1.95E1));
#282=CARTESIAN_POINT('',(0.E0,0.E0,-1.95E1));
#283=VERTEX_POINT('',#281);
#284=VERTEX_POINT('',#282);
#285=CARTESIAN_POINT('',(-3.99E1,0.E0,-2.135E1));
#286=VERTEX_POINT('',#285);
#287=CARTESIAN_POINT('',(3.99E1,0.E0,2.135E1));
#288=VERTEX_POINT('',#287);
#289=CARTESIAN_POINT('',(-9.165151389912E-1,0.E0,-2.135E1));
#290=VERTEX_POINT('',#289);
#291=CARTESIAN_POINT('',(0.E0,0.E0,-2.075E1));
#292=VERTEX_POINT('',#291);
#293=CARTESIAN_POINT('',(-1.529705854078E0,0.E0,-2.01E1));
#294=VERTEX_POINT('',#293);
#295=CARTESIAN_POINT('',(-3.99E1,0.E0,2.135E1));
#296=VERTEX_POINT('',#295);
#297=CARTESIAN_POINT('',(-1.529705854078E0,0.E0,2.01E1));
#298=VERTEX_POINT('',#297);
#299=CARTESIAN_POINT('',(4.E1,0.E0,2.02E1));
#300=CARTESIAN_POINT('',(4.E1,0.E0,-2.02E1));
#301=VERTEX_POINT('',#299);
#302=VERTEX_POINT('',#300);
#303=CARTESIAN_POINT('',(3.99E1,0.E0,-2.135E1));
#304=VERTEX_POINT('',#303);
#305=CARTESIAN_POINT('',(4.E1,0.E0,2.125E1));
#306=VERTEX_POINT('',#305);
#307=CARTESIAN_POINT('',(4.E1,1.776356839400E-14,-2.125E1));
#308=VERTEX_POINT('',#307);
#309=CARTESIAN_POINT('',(0.E0,0.E0,0.E0));
#310=DIRECTION('',(-1.E0,0.E0,0.E0));
#311=DIRECTION('',(0.E0,0.E0,1.E0));
#312=AXIS2_PLACEMENT_3D('',#309,#310,#311);
#313=TOROIDAL_SURFACE('',#312,2.175E1,2.25E0);
#315=ORIENTED_EDGE('',*,*,#314,.F.);
#317=ORIENTED_EDGE('',*,*,#316,.T.);
#319=ORIENTED_EDGE('',*,*,#318,.F.);
#321=ORIENTED_EDGE('',*,*,#320,.F.);
#322=EDGE_LOOP('',(#315,#317,#319,#321));
#323=FACE_OUTER_BOUND('',#322,.F.);
#324=ADVANCED_FACE('',(#323),#313,.T.);
#325=CARTESIAN_POINT('',(0.E0,0.E0,0.E0));
#326=DIRECTION('',(-1.E0,0.E0,0.E0));
#327=DIRECTION('',(0.E0,0.E0,1.E0));
#328=AXIS2_PLACEMENT_3D('',#325,#326,#327);
#329=TOROIDAL_SURFACE('',#328,2.175E1,2.25E0);
#331=ORIENTED_EDGE('',*,*,#330,.F.);
#333=ORIENTED_EDGE('',*,*,#332,.F.);
#335=ORIENTED_EDGE('',*,*,#334,.T.);
#336=ORIENTED_EDGE('',*,*,#314,.T.);
#337=EDGE_LOOP('',(#331,#333,#335,#336));
#338=FACE_OUTER_BOUND('',#337,.F.);
#339=ADVANCED_FACE('',(#338),#329,.T.);
#340=CARTESIAN_POINT('',(0.E0,0.E0,0.E0));
#341=DIRECTION('',(-1.E0,0.E0,0.E0));
#342=DIRECTION('',(0.E0,0.E0,1.E0));
#343=AXIS2_PLACEMENT_3D('',#340,#341,#342);
#344=TOROIDAL_SURFACE('',#343,2.175E1,2.25E0);
#345=ORIENTED_EDGE('',*,*,#334,.F.);
#347=ORIENTED_EDGE('',*,*,#346,.F.);
#348=ORIENTED_EDGE('',*,*,#330,.T.);
#350=ORIENTED_EDGE('',*,*,#349,.T.);
#351=EDGE_LOOP('',(#345,#347,#348,#350));
#352=FACE_OUTER_BOUND('',#351,.F.);
#353=ADVANCED_FACE('',(#352),#344,.T.);
#354=CARTESIAN_POINT('',(-1.747792894758E1,0.E0,0.E0));
#355=DIRECTION('',(-1.E0,0.E0,0.E0));
#356=DIRECTION('',(0.E0,0.E0,1.E0));
#357=AXIS2_PLACEMENT_3D('',#354,#355,#356);
#358=CYLINDRICAL_SURFACE('',#357,2.01E1);
#360=ORIENTED_EDGE('',*,*,#359,.F.);
#361=ORIENTED_EDGE('',*,*,#346,.T.);
#363=ORIENTED_EDGE('',*,*,#362,.T.);
#365=ORIENTED_EDGE('',*,*,#364,.T.);
#366=EDGE_LOOP('',(#360,#361,#363,#365));
#367=FACE_OUTER_BOUND('',#366,.F.);
#368=ADVANCED_FACE('',(#367),#358,.F.);
#369=CARTESIAN_POINT('',(-1.747792894758E1,0.E0,0.E0));
#370=DIRECTION('',(-1.E0,0.E0,0.E0));
#371=DIRECTION('',(0.E0,0.E0,1.E0));
#372=AXIS2_PLACEMENT_3D('',#369,#370,#371);
#373=CYLINDRICAL_SURFACE('',#372,2.01E1);
#375=ORIENTED_EDGE('',*,*,#374,.T.);
#376=ORIENTED_EDGE('',*,*,#362,.F.);
#377=ORIENTED_EDGE('',*,*,#332,.T.);
#378=ORIENTED_EDGE('',*,*,#359,.T.);
#379=EDGE_LOOP('',(#375,#376,#377,#378));
#380=FACE_OUTER_BOUND('',#379,.F.);
#381=ADVANCED_FACE('',(#380),#373,.F.);
#382=CARTESIAN_POINT('',(3.99E1,0.E0,0.E0));
#383=DIRECTION('',(-1.E0,0.E0,0.E0));
#384=DIRECTION('',(0.E0,0.E0,1.E0));
#385=AXIS2_PLACEMENT_3D('',#382,#383,#384);
#386=TOROIDAL_SURFACE('',#385,2.02E1,1.E-1);
#388=ORIENTED_EDGE('',*,*,#387,.F.);
#390=ORIENTED_EDGE('',*,*,#389,.T.);
#392=ORIENTED_EDGE('',*,*,#391,.T.);
#393=ORIENTED_EDGE('',*,*,#374,.F.);
#394=EDGE_LOOP('',(#388,#390,#392,#393));
#395=FACE_OUTER_BOUND('',#394,.F.);
#396=ADVANCED_FACE('',(#395),#386,.T.);
#397=CARTESIAN_POINT('',(3.99E1,0.E0,0.E0));
#398=DIRECTION('',(-1.E0,0.E0,0.E0));
#399=DIRECTION('',(0.E0,0.E0,1.E0));
#400=AXIS2_PLACEMENT_3D('',#397,#398,#399);
#401=TOROIDAL_SURFACE('',#400,2.02E1,1.E-1);
#402=ORIENTED_EDGE('',*,*,#364,.F.);
#403=ORIENTED_EDGE('',*,*,#391,.F.);
#405=ORIENTED_EDGE('',*,*,#404,.T.);
#406=ORIENTED_EDGE('',*,*,#387,.T.);
#407=EDGE_LOOP('',(#402,#403,#405,#406));
#408=FACE_OUTER_BOUND('',#407,.F.);
#409=ADVANCED_FACE('',(#408),#401,.T.);
#410=CARTESIAN_POINT('',(4.E1,2.135E1,0.E0));
#411=DIRECTION('',(-1.E0,0.E0,0.E0));
#412=DIRECTION('',(0.E0,0.E0,1.E0));
#413=AXIS2_PLACEMENT_3D('',#410,#411,#412);
#414=PLANE('',#413);
#416=ORIENTED_EDGE('',*,*,#415,.F.);
#418=ORIENTED_EDGE('',*,*,#417,.F.);
#419=EDGE_LOOP('',(#416,#418));
#420=FACE_OUTER_BOUND('',#419,.F.);
#421=ORIENTED_EDGE('',*,*,#404,.F.);
#422=ORIENTED_EDGE('',*,*,#389,.F.);
#423=EDGE_LOOP('',(#421,#422));
#424=FACE_BOUND('',#423,.F.);
#425=ADVANCED_FACE('',(#420,#424),#414,.F.);
#426=CARTESIAN_POINT('',(3.99E1,0.E0,0.E0));
#427=DIRECTION('',(-1.E0,0.E0,0.E0));
#428=DIRECTION('',(0.E0,0.E0,1.E0));
#429=AXIS2_PLACEMENT_3D('',#426,#427,#428);
#430=TOROIDAL_SURFACE('',#429,2.125E1,1.E-1);
#432=ORIENTED_EDGE('',*,*,#431,.F.);
#434=ORIENTED_EDGE('',*,*,#433,.F.);
#436=ORIENTED_EDGE('',*,*,#435,.T.);
#437=ORIENTED_EDGE('',*,*,#415,.T.);
#438=EDGE_LOOP('',(#432,#434,#436,#437));
#439=FACE_OUTER_BOUND('',#438,.F.);
#440=ADVANCED_FACE('',(#439),#430,.T.);
#441=CARTESIAN_POINT('',(3.99E1,0.E0,0.E0));
#442=DIRECTION('',(-1.E0,0.E0,0.E0));
#443=DIRECTION('',(0.E0,0.E0,1.E0));
#444=AXIS2_PLACEMENT_3D('',#441,#442,#443);
#445=TOROIDAL_SURFACE('',#444,2.125E1,1.E-1);
#446=ORIENTED_EDGE('',*,*,#417,.T.);
#447=ORIENTED_EDGE('',*,*,#435,.F.);
#449=ORIENTED_EDGE('',*,*,#448,.F.);
#450=ORIENTED_EDGE('',*,*,#431,.T.);
#451=EDGE_LOOP('',(#446,#447,#449,#450));
#452=FACE_OUTER_BOUND('',#451,.F.);
#453=ADVANCED_FACE('',(#452),#445,.T.);
#454=CARTESIAN_POINT('',(-1.747792894758E1,0.E0,0.E0));
#455=DIRECTION('',(-1.E0,0.E0,0.E0));
#456=DIRECTION('',(0.E0,0.E0,1.E0));
#457=AXIS2_PLACEMENT_3D('',#454,#455,#456);
#458=CYLINDRICAL_SURFACE('',#457,2.135E1);
#459=ORIENTED_EDGE('',*,*,#448,.T.);
#461=ORIENTED_EDGE('',*,*,#460,.F.);
#463=ORIENTED_EDGE('',*,*,#462,.T.);
#465=ORIENTED_EDGE('',*,*,#464,.T.);
#466=EDGE_LOOP('',(#459,#461,#463,#465));
#467=FACE_OUTER_BOUND('',#466,.F.);
#468=ADVANCED_FACE('',(#467),#458,.T.);
#469=CARTESIAN_POINT('',(-1.747792894758E1,0.E0,0.E0));
#470=DIRECTION('',(-1.E0,0.E0,0.E0));
#471=DIRECTION('',(0.E0,0.E0,1.E0));
#472=AXIS2_PLACEMENT_3D('',#469,#470,#471);
#473=CYLINDRICAL_SURFACE('',#472,2.135E1);
#474=ORIENTED_EDGE('',*,*,#464,.F.);
#476=ORIENTED_EDGE('',*,*,#475,.T.);
#477=ORIENTED_EDGE('',*,*,#460,.T.);
#478=ORIENTED_EDGE('',*,*,#433,.T.);
#479=EDGE_LOOP('',(#474,#476,#477,#478));
#480=FACE_OUTER_BOUND('',#479,.F.);
#481=ADVANCED_FACE('',(#480),#473,.T.);
#482=CARTESIAN_POINT('',(0.E0,0.E0,0.E0));
#483=DIRECTION('',(-1.E0,0.E0,0.E0));
#484=DIRECTION('',(0.E0,0.E0,1.E0));
#485=AXIS2_PLACEMENT_3D('',#482,#483,#484);
#486=TOROIDAL_SURFACE('',#485,2.175E1,1.E0);
#488=ORIENTED_EDGE('',*,*,#487,.F.);
#490=ORIENTED_EDGE('',*,*,#489,.F.);
#491=ORIENTED_EDGE('',*,*,#475,.F.);
#493=ORIENTED_EDGE('',*,*,#492,.T.);
#494=EDGE_LOOP('',(#488,#490,#491,#493));
#495=FACE_OUTER_BOUND('',#494,.F.);
#496=ADVANCED_FACE('',(#495),#486,.F.);
#497=CARTESIAN_POINT('',(0.E0,0.E0,0.E0));
#498=DIRECTION('',(-1.E0,0.E0,0.E0));
#499=DIRECTION('',(0.E0,0.E0,1.E0));
#500=AXIS2_PLACEMENT_3D('',#497,#498,#499);
#501=TOROIDAL_SURFACE('',#500,2.175E1,1.E0);
#503=ORIENTED_EDGE('',*,*,#502,.T.);
#505=ORIENTED_EDGE('',*,*,#504,.F.);
#507=ORIENTED_EDGE('',*,*,#506,.F.);
#508=ORIENTED_EDGE('',*,*,#487,.T.);
#509=EDGE_LOOP('',(#503,#505,#507,#508));
#510=FACE_OUTER_BOUND('',#509,.F.);
#511=ADVANCED_FACE('',(#510),#501,.F.);
#512=CARTESIAN_POINT('',(0.E0,0.E0,0.E0));
#513=DIRECTION('',(-1.E0,0.E0,0.E0));
#514=DIRECTION('',(0.E0,0.E0,1.E0));
#515=AXIS2_PLACEMENT_3D('',#512,#513,#514);
#516=TOROIDAL_SURFACE('',#515,2.175E1,1.E0);
#517=ORIENTED_EDGE('',*,*,#506,.T.);
#519=ORIENTED_EDGE('',*,*,#518,.F.);
#520=ORIENTED_EDGE('',*,*,#502,.F.);
#522=ORIENTED_EDGE('',*,*,#521,.T.);
#523=EDGE_LOOP('',(#517,#519,#520,#522));
#524=FACE_OUTER_BOUND('',#523,.F.);
#525=ADVANCED_FACE('',(#524),#516,.F.);
#526=CARTESIAN_POINT('',(-1.747792894758E1,0.E0,0.E0));
#527=DIRECTION('',(-1.E0,0.E0,0.E0));
#528=DIRECTION('',(0.E0,0.E0,1.E0));
#529=AXIS2_PLACEMENT_3D('',#526,#527,#528);
#530=CYLINDRICAL_SURFACE('',#529,2.135E1);
#531=ORIENTED_EDGE('',*,*,#518,.T.);
#533=ORIENTED_EDGE('',*,*,#532,.F.);
#535=ORIENTED_EDGE('',*,*,#534,.T.);
#537=ORIENTED_EDGE('',*,*,#536,.T.);
#538=EDGE_LOOP('',(#531,#533,#535,#537));
#539=FACE_OUTER_BOUND('',#538,.F.);
#540=ADVANCED_FACE('',(#539),#530,.T.);
#541=CARTESIAN_POINT('',(-1.747792894758E1,0.E0,0.E0));
#542=DIRECTION('',(-1.E0,0.E0,0.E0));
#543=DIRECTION('',(0.E0,0.E0,1.E0));
#544=AXIS2_PLACEMENT_3D('',#541,#542,#543);
#545=CYLINDRICAL_SURFACE('',#544,2.135E1);
#546=ORIENTED_EDGE('',*,*,#536,.F.);
#548=ORIENTED_EDGE('',*,*,#547,.T.);
#549=ORIENTED_EDGE('',*,*,#532,.T.);
#550=ORIENTED_EDGE('',*,*,#504,.T.);
#551=EDGE_LOOP('',(#546,#548,#549,#550));
#552=FACE_OUTER_BOUND('',#551,.F.);
#553=ADVANCED_FACE('',(#552),#545,.T.);
#554=CARTESIAN_POINT('',(-3.99E1,0.E0,0.E0));
#555=DIRECTION('',(1.E0,0.E0,0.E0));
#556=DIRECTION('',(0.E0,0.E0,-1.E0));
#557=AXIS2_PLACEMENT_3D('',#554,#555,#556);
#558=TOROIDAL_SURFACE('',#557,2.125E1,1.E-1);
#560=ORIENTED_EDGE('',*,*,#559,.F.);
#561=ORIENTED_EDGE('',*,*,#547,.F.);
#563=ORIENTED_EDGE('',*,*,#562,.T.);
#565=ORIENTED_EDGE('',*,*,#564,.T.);
#566=EDGE_LOOP('',(#560,#561,#563,#565));
#567=FACE_OUTER_BOUND('',#566,.F.);
#568=ADVANCED_FACE('',(#567),#558,.T.);
#569=CARTESIAN_POINT('',(-3.99E1,0.E0,0.E0));
#570=DIRECTION('',(1.E0,0.E0,0.E0));
#571=DIRECTION('',(0.E0,0.E0,-1.E0));
#572=AXIS2_PLACEMENT_3D('',#569,#570,#571);
#573=TOROIDAL_SURFACE('',#572,2.125E1,1.E-1);
#575=ORIENTED_EDGE('',*,*,#574,.T.);
#576=ORIENTED_EDGE('',*,*,#562,.F.);
#577=ORIENTED_EDGE('',*,*,#534,.F.);
#578=ORIENTED_EDGE('',*,*,#559,.T.);
#579=EDGE_LOOP('',(#575,#576,#577,#578));
#580=FACE_OUTER_BOUND('',#579,.F.);
#581=ADVANCED_FACE('',(#580),#573,.T.);
#582=CARTESIAN_POINT('',(-4.E1,2.135E1,0.E0));
#583=DIRECTION('',(1.E0,0.E0,0.E0));
#584=DIRECTION('',(0.E0,0.E0,-1.E0));
#585=AXIS2_PLACEMENT_3D('',#582,#583,#584);
#586=PLANE('',#585);
#587=ORIENTED_EDGE('',*,*,#564,.F.);
#588=ORIENTED_EDGE('',*,*,#574,.F.);
#589=EDGE_LOOP('',(#587,#588));
#590=FACE_OUTER_BOUND('',#589,.F.);
#592=ORIENTED_EDGE('',*,*,#591,.F.);
#594=ORIENTED_EDGE('',*,*,#593,.F.);
#595=EDGE_LOOP('',(#592,#594));
#596=FACE_BOUND('',#595,.F.);
#597=ADVANCED_FACE('',(#590,#596),#586,.F.);
#598=CARTESIAN_POINT('',(-3.99E1,0.E0,0.E0));
#599=DIRECTION('',(1.E0,0.E0,0.E0));
#600=DIRECTION('',(0.E0,0.E0,-1.E0));
#601=AXIS2_PLACEMENT_3D('',#598,#599,#600);
#602=TOROIDAL_SURFACE('',#601,2.02E1,1.E-1);
#604=ORIENTED_EDGE('',*,*,#603,.F.);
#606=ORIENTED_EDGE('',*,*,#605,.F.);
#607=ORIENTED_EDGE('',*,*,#591,.T.);
#609=ORIENTED_EDGE('',*,*,#608,.T.);
#610=EDGE_LOOP('',(#604,#606,#607,#609));
#611=FACE_OUTER_BOUND('',#610,.F.);
#612=ADVANCED_FACE('',(#611),#602,.T.);
#613=CARTESIAN_POINT('',(-1.747792894758E1,0.E0,0.E0));
#614=DIRECTION('',(-1.E0,0.E0,0.E0));
#615=DIRECTION('',(0.E0,0.E0,1.E0));
#616=AXIS2_PLACEMENT_3D('',#613,#614,#615);
#617=CYLINDRICAL_SURFACE('',#616,2.01E1);
#619=ORIENTED_EDGE('',*,*,#618,.F.);
#620=ORIENTED_EDGE('',*,*,#603,.T.);
#622=ORIENTED_EDGE('',*,*,#621,.T.);
#624=ORIENTED_EDGE('',*,*,#623,.T.);
#625=EDGE_LOOP('',(#619,#620,#622,#624));
#626=FACE_OUTER_BOUND('',#625,.F.);
#627=ADVANCED_FACE('',(#626),#617,.F.);
#628=CARTESIAN_POINT('',(-1.747792894758E1,0.E0,0.E0));
#629=DIRECTION('',(-1.E0,0.E0,0.E0));
#630=DIRECTION('',(0.E0,0.E0,1.E0));
#631=AXIS2_PLACEMENT_3D('',#628,#629,#630);
#632=CYLINDRICAL_SURFACE('',#631,2.01E1);
#633=ORIENTED_EDGE('',*,*,#318,.T.);
#634=ORIENTED_EDGE('',*,*,#621,.F.);
#636=ORIENTED_EDGE('',*,*,#635,.T.);
#637=ORIENTED_EDGE('',*,*,#618,.T.);
#638=EDGE_LOOP('',(#633,#634,#636,#637));
#639=FACE_OUTER_BOUND('',#638,.F.);
#640=ADVANCED_FACE('',(#639),#632,.F.);
#641=CARTESIAN_POINT('',(-3.99E1,0.E0,0.E0));
#642=DIRECTION('',(1.E0,0.E0,0.E0));
#643=DIRECTION('',(0.E0,0.E0,-1.E0));
#644=AXIS2_PLACEMENT_3D('',#641,#642,#643);
#645=TOROIDAL_SURFACE('',#644,2.02E1,1.E-1);
#646=ORIENTED_EDGE('',*,*,#608,.F.);
#647=ORIENTED_EDGE('',*,*,#593,.T.);
#648=ORIENTED_EDGE('',*,*,#605,.T.);
#649=ORIENTED_EDGE('',*,*,#635,.F.);
#650=EDGE_LOOP('',(#646,#647,#648,#649));
#651=FACE_OUTER_BOUND('',#650,.F.);
#652=ADVANCED_FACE('',(#651),#645,.T.);
#653=CARTESIAN_POINT('',(0.E0,0.E0,0.E0));
#654=DIRECTION('',(-1.E0,0.E0,0.E0));
#655=DIRECTION('',(0.E0,0.E0,1.E0));
#656=AXIS2_PLACEMENT_3D('',#653,#654,#655);
#657=TOROIDAL_SURFACE('',#656,2.175E1,2.25E0);
#658=ORIENTED_EDGE('',*,*,#349,.F.);
#659=ORIENTED_EDGE('',*,*,#320,.T.);
#660=ORIENTED_EDGE('',*,*,#623,.F.);
#661=ORIENTED_EDGE('',*,*,#316,.F.);
#662=EDGE_LOOP('',(#658,#659,#660,#661));
#663=FACE_OUTER_BOUND('',#662,.F.);
#664=ADVANCED_FACE('',(#663),#657,.T.);
#665=CARTESIAN_POINT('',(0.E0,0.E0,0.E0));
#666=DIRECTION('',(-1.E0,0.E0,0.E0));
#667=DIRECTION('',(0.E0,0.E0,1.E0));
#668=AXIS2_PLACEMENT_3D('',#665,#666,#667);
#669=TOROIDAL_SURFACE('',#668,2.175E1,1.E0);
#670=ORIENTED_EDGE('',*,*,#521,.F.);
#671=ORIENTED_EDGE('',*,*,#492,.F.);
#672=ORIENTED_EDGE('',*,*,#462,.F.);
#673=ORIENTED_EDGE('',*,*,#489,.T.);
#674=EDGE_LOOP('',(#670,#671,#672,#673));
#675=FACE_OUTER_BOUND('',#674,.F.);
#676=ADVANCED_FACE('',(#675),#669,.F.);
#677=CLOSED_SHELL('',(#324,#339,#353,#368,#381,#396,#409,#425,#440,#453,#468,
#481,#496,#511,#525,#540,#553,#568,#581,#597,#612,#627,#640,#652,#664,#676));
#678=MANIFOLD_SOLID_BREP('',#677);
#680=DIMENSIONAL_EXPONENTS(0.E0,0.E0,0.E0,0.E0,0.E0,0.E0,0.E0);
#682=PLANE_ANGLE_MEASURE_WITH_UNIT(PLANE_ANGLE_MEASURE(1.745329251994E-2),#681);
#683=(CONVERSION_BASED_UNIT('DEGREE',#682)NAMED_UNIT(*)PLANE_ANGLE_UNIT());
#685=UNCERTAINTY_MEASURE_WITH_UNIT(LENGTH_MEASURE(1.002286201126E-2),#679,
'closure',
'Maximum model space distance between geometric entities at asserted connectivities');
#686=(GEOMETRIC_REPRESENTATION_CONTEXT(3)GLOBAL_UNCERTAINTY_ASSIGNED_CONTEXT((
#685))GLOBAL_UNIT_ASSIGNED_CONTEXT((#679,#683,#684))REPRESENTATION_CONTEXT
('ID1','3'));
#688=APPLICATION_CONTEXT(
'CONFIGURATION CONTROLLED 3D DESIGNS OF MECHANICAL PARTS AND ASSEMBLIES');
#689=APPLICATION_PROTOCOL_DEFINITION('international standard',
'config_control_design',1994,#688);
#690=DESIGN_CONTEXT('',#688,'design');
#691=MECHANICAL_CONTEXT('',#688,'mechanical');
#692=PRODUCT('2046774','2046774','NOT SPECIFIED',(#691));
#693=PRODUCT_DEFINITION_FORMATION_WITH_SPECIFIED_SOURCE('1','LAST_VERSION',#692,
.MADE.);
#697=PRODUCT_CATEGORY('part','');
#698=PRODUCT_RELATED_PRODUCT_CATEGORY('detail','',(#692));
#699=PRODUCT_CATEGORY_RELATIONSHIP('','',#697,#698);
#700=SECURITY_CLASSIFICATION_LEVEL('unclassified');
#701=SECURITY_CLASSIFICATION('','',#700);
#702=CC_DESIGN_SECURITY_CLASSIFICATION(#701,(#693));
#703=APPROVAL_STATUS('approved');
#704=APPROVAL(#703,'');
#705=CC_DESIGN_APPROVAL(#704,(#701,#693,#694));
#706=CALENDAR_DATE(115,18,6);
#707=COORDINATED_UNIVERSAL_TIME_OFFSET(2,0,.AHEAD.);
#708=LOCAL_TIME(10,10,4.1E1,#707);
#709=DATE_AND_TIME(#706,#708);
#710=APPROVAL_DATE_TIME(#709,#704);
#711=DATE_TIME_ROLE('creation_date');
#712=CC_DESIGN_DATE_AND_TIME_ASSIGNMENT(#709,#711,(#694));
#713=DATE_TIME_ROLE('classification_date');
#714=CC_DESIGN_DATE_AND_TIME_ASSIGNMENT(#709,#713,(#701));
#715=PERSON('UNSPECIFIED','UNSPECIFIED',$,$,$,$);
#716=ORGANIZATION('UNSPECIFIED','UNSPECIFIED','UNSPECIFIED');
#717=PERSON_AND_ORGANIZATION(#715,#716);
#718=APPROVAL_ROLE('approver');
#719=APPROVAL_PERSON_ORGANIZATION(#717,#704,#718);
#720=PERSON_AND_ORGANIZATION_ROLE('creator');
#721=CC_DESIGN_PERSON_AND_ORGANIZATION_ASSIGNMENT(#717,#720,(#693,#694));
#722=PERSON_AND_ORGANIZATION_ROLE('design_supplier');
#723=CC_DESIGN_PERSON_AND_ORGANIZATION_ASSIGNMENT(#717,#722,(#693));
#724=PERSON_AND_ORGANIZATION_ROLE('classification_officer');
#725=CC_DESIGN_PERSON_AND_ORGANIZATION_ASSIGNMENT(#717,#724,(#701));
#726=PERSON_AND_ORGANIZATION_ROLE('design_owner');
#727=CC_DESIGN_PERSON_AND_ORGANIZATION_ASSIGNMENT(#717,#726,(#692));
#5=CIRCLE('',#4,1.95E1);
#10=CIRCLE('',#9,2.01E1);
#15=CIRCLE('',#14,2.25E0);
#20=CIRCLE('',#19,2.25E0);
#25=CIRCLE('',#24,2.01E1);
#30=CIRCLE('',#29,2.25E0);
#35=CIRCLE('',#34,2.01E1);
#48=CIRCLE('',#47,1.E-1);
#53=CIRCLE('',#52,2.01E1);
#58=CIRCLE('',#57,2.01E1);
#63=CIRCLE('',#62,1.E-1);
#68=CIRCLE('',#67,2.125E1);
#73=CIRCLE('',#72,2.125E1);
#78=CIRCLE('',#77,2.02E1);
#83=CIRCLE('',#82,2.02E1);
#88=CIRCLE('',#87,1.E-1);
#93=CIRCLE('',#92,2.135E1);
#98=CIRCLE('',#97,1.E-1);
#103=CIRCLE('',#102,2.135E1);
#116=CIRCLE('',#115,2.075E1);
#121=CIRCLE('',#120,1.E0);
#126=CIRCLE('',#125,2.135E1);
#131=CIRCLE('',#130,2.135E1);
#136=CIRCLE('',#135,1.E0);
#141=CIRCLE('',#140,2.135E1);
#146=CIRCLE('',#145,1.E0);
#159=CIRCLE('',#158,1.E-1);
#164=CIRCLE('',#163,2.135E1);
#169=CIRCLE('',#168,1.E-1);
#174=CIRCLE('',#173,2.135E1);
#179=CIRCLE('',#178,2.125E1);
#184=CIRCLE('',#183,2.125E1);
#189=CIRCLE('',#188,2.02E1);
#194=CIRCLE('',#193,2.02E1);
#199=CIRCLE('',#198,2.01E1);
#204=CIRCLE('',#203,1.E-1);
#217=CIRCLE('',#216,1.E-1);
#222=CIRCLE('',#221,2.01E1);
#227=CIRCLE('',#226,1.95E1);
#232=CIRCLE('',#231,2.01E1);
#237=CIRCLE('',#236,2.25E0);
#242=CIRCLE('',#241,2.075E1);
#247=CIRCLE('',#246,1.E0);
#252=CIRCLE('',#251,2.135E1);
#314=EDGE_CURVE('',#283,#284,#5,.T.);
#316=EDGE_CURVE('',#283,#298,#237,.T.);
#318=EDGE_CURVE('',#294,#298,#10,.T.);
#320=EDGE_CURVE('',#284,#294,#15,.T.);
#330=EDGE_CURVE('',#280,#284,#20,.T.);
#332=EDGE_CURVE('',#262,#280,#25,.T.);
#334=EDGE_CURVE('',#262,#283,#30,.T.);
#346=EDGE_CURVE('',#280,#262,#35,.T.);
#349=EDGE_CURVE('',#284,#283,#227,.T.);
#359=EDGE_CURVE('',#280,#260,#39,.T.);
#362=EDGE_CURVE('',#262,#259,#43,.T.);
#364=EDGE_CURVE('',#259,#260,#58,.T.);
#374=EDGE_CURVE('',#260,#259,#53,.T.);
#387=EDGE_CURVE('',#302,#260,#48,.T.);
#389=EDGE_CURVE('',#302,#301,#83,.T.);
#391=EDGE_CURVE('',#301,#259,#63,.T.);
#404=EDGE_CURVE('',#301,#302,#78,.T.);
#415=EDGE_CURVE('',#306,#308,#68,.T.);
#417=EDGE_CURVE('',#308,#306,#73,.T.);
#431=EDGE_CURVE('',#304,#308,#88,.T.);
#433=EDGE_CURVE('',#288,#304,#93,.T.);
#435=EDGE_CURVE('',#288,#306,#98,.T.);
#448=EDGE_CURVE('',#304,#288,#103,.T.);
#460=EDGE_CURVE('',#265,#288,#107,.T.);
#462=EDGE_CURVE('',#265,#266,#252,.T.);
#464=EDGE_CURVE('',#266,#304,#111,.T.);
#475=EDGE_CURVE('',#266,#265,#126,.T.);
#487=EDGE_CURVE('',#269,#292,#116,.T.);
#489=EDGE_CURVE('',#265,#269,#121,.T.);
#492=EDGE_CURVE('',#266,#292,#247,.T.);
#502=EDGE_CURVE('',#292,#290,#146,.T.);
#504=EDGE_CURVE('',#270,#290,#131,.T.);
#506=EDGE_CURVE('',#269,#270,#136,.T.);
#518=EDGE_CURVE('',#290,#270,#141,.T.);
#521=EDGE_CURVE('',#292,#269,#242,.T.);
#532=EDGE_CURVE('',#296,#270,#150,.T.);
#534=EDGE_CURVE('',#296,#286,#174,.T.);
#536=EDGE_CURVE('',#286,#290,#154,.T.);
#547=EDGE_CURVE('',#286,#296,#164,.T.);
#559=EDGE_CURVE('',#296,#278,#159,.T.);
#562=EDGE_CURVE('',#286,#277,#169,.T.);
#564=EDGE_CURVE('',#277,#278,#179,.T.);
#574=EDGE_CURVE('',#278,#277,#184,.T.);
#591=EDGE_CURVE('',#255,#273,#189,.T.);
#593=EDGE_CURVE('',#273,#255,#194,.T.);
#603=EDGE_CURVE('',#256,#274,#199,.T.);
#605=EDGE_CURVE('',#255,#256,#204,.T.);
#608=EDGE_CURVE('',#273,#274,#217,.T.);
#618=EDGE_CURVE('',#256,#294,#208,.T.);
#621=EDGE_CURVE('',#274,#298,#212,.T.);
#623=EDGE_CURVE('',#298,#294,#232,.T.);
#635=EDGE_CURVE('',#274,#256,#222,.T.);
#679=(LENGTH_UNIT()NAMED_UNIT(*)SI_UNIT(.MILLI.,.METRE.));
#681=(NAMED_UNIT(*)PLANE_ANGLE_UNIT()SI_UNIT($,.RADIAN.));
#684=(NAMED_UNIT(*)SI_UNIT($,.STERADIAN.)SOLID_ANGLE_UNIT());
#687=ADVANCED_BREP_SHAPE_REPRESENTATION('',(#678),#686);
#694=PRODUCT_DEFINITION('design','',#693,#690);
#695=PRODUCT_DEFINITION_SHAPE('','SHAPE FOR 2046774.',#694);
#696=SHAPE_DEFINITION_REPRESENTATION(#695,#687);
ENDSEC;
END-ISO-10303-21;
