ISO-10303-21;
HEADER;
FILE_DESCRIPTION (( 'STEP AP214' ),
    '1' );
FILE_NAME ('2046626.stp',
    '2020-01-22T08:04:23',
    ( '' ),
    ( '' ),
    'SwSTEP 2.0',
    'SolidWorks 2018',
    '' );
FILE_SCHEMA (( 'AUTOMOTIVE_DESIGN' ));
ENDSEC;

DATA;
#1 = UNCERTAINTY_MEASURE_WITH_UNIT (LENGTH_MEASURE( 1.000000000000000082E-05 ), #66, 'distance_accuracy_value', 'NONE');
#2 = DIRECTION ( 'NONE',  ( -1.000000000000000000, -0.0000000000000000000, -0.0000000000000000000 ) ) ;
#3 = DIRECTION ( 'NONE',  ( 0.0000000000000000000, 0.0000000000000000000, 1.000000000000000000 ) ) ;
#4 = ORIENTED_EDGE ( 'NONE', *, *, #313, .F. ) ;
#5 = ORIENTED_EDGE ( 'NONE', *, *, #138, .T. ) ;
#6 = FACE_BOUND ( 'NONE', #259, .T. ) ;
#7 = AXIS2_PLACEMENT_3D ( 'NONE', #178, #2, #314 ) ;
#8 = DIRECTION ( 'NONE',  ( 0.0000000000000000000, 0.0000000000000000000, 1.000000000000000000 ) ) ;
#9 = DIRECTION ( 'NONE',  ( 1.000000000000000000, 0.0000000000000000000, 0.0000000000000000000 ) ) ;
#10 = EDGE_LOOP ( 'NONE', ( #331, #75, #174, #20 ) ) ;
#11 = ORIENTED_EDGE ( 'NONE', *, *, #235, .F. ) ;
#12 = DIRECTION ( 'NONE',  ( -1.000000000000000000, -0.0000000000000000000, -0.0000000000000000000 ) ) ;
#13 = APPLICATION_PROTOCOL_DEFINITION ( 'draft international standard', 'automotive_design', 1998, #345 ) ;
#14 = CIRCLE ( 'NONE', #158, 32.00000000000000000 ) ;
#15 = UNCERTAINTY_MEASURE_WITH_UNIT (LENGTH_MEASURE( 1.000000000000000082E-05 ), #92, 'distance_accuracy_value', 'NONE');
#16 = MECHANICAL_DESIGN_GEOMETRIC_PRESENTATION_REPRESENTATION (  '', ( #359 ), #324 ) ;
#17 = ORIENTED_EDGE ( 'NONE', *, *, #235, .T. ) ;
#18 = EDGE_CURVE ( 'NONE', #180, #238, #315, .T. ) ;
#19 = PRESENTATION_STYLE_ASSIGNMENT (( #71 ) ) ;
#20 = ORIENTED_EDGE ( 'NONE', *, *, #120, .F. ) ;
#21 = AXIS2_PLACEMENT_3D ( 'NONE', #220, #53, #166 ) ;
#22 = AXIS2_PLACEMENT_3D ( 'NONE', #149, #333, #145 ) ;
#23 = SURFACE_STYLE_USAGE ( .BOTH. , #25 ) ;
#24 = CIRCLE ( 'NONE', #231, 32.00000000000000000 ) ;
#25 = SURFACE_SIDE_STYLE ('',( #211 ) ) ;
#26 = VECTOR ( 'NONE', #292, 1000.000000000000000 ) ;
#27 = EDGE_LOOP ( 'NONE', ( #319, #161, #268, #233 ) ) ;
#28 = FILL_AREA_STYLE_COLOUR ( '', #63 ) ;
#29 = DIRECTION ( 'NONE',  ( 0.0000000000000000000, 0.0000000000000000000, -1.000000000000000000 ) ) ;
#30 = EDGE_CURVE ( 'NONE', #179, #282, #167, .T. ) ;
#31 = AXIS2_PLACEMENT_3D ( 'NONE', #358, #169, #269 ) ;
#32 = DIRECTION ( 'NONE',  ( 0.0000000000000000000, -1.224646799147353454E-16, 1.000000000000000000 ) ) ;
#33 = EDGE_CURVE ( 'NONE', #152, #155, #121, .T. ) ;
#34 = DIRECTION ( 'NONE',  ( 0.0000000000000000000, 0.0000000000000000000, 1.000000000000000000 ) ) ;
#35 = DIRECTION ( 'NONE',  ( 0.0000000000000000000, 0.0000000000000000000, -1.000000000000000000 ) ) ;
#36 = FACE_OUTER_BOUND ( 'NONE', #352, .T. ) ;
#37 = CARTESIAN_POINT ( 'NONE',  ( 0.0000000000000000000, 0.0000000000000000000, 0.0000000000000000000 ) ) ;
#38 = CIRCLE ( 'NONE', #82, 32.00000000000000000 ) ;
#39 = CARTESIAN_POINT ( 'NONE',  ( -17.47792894757627025, 0.0000000000000000000, 33.50000000000000000 ) ) ;
#40 = DIRECTION ( 'NONE',  ( -1.000000000000000000, 0.0000000000000000000, -0.0000000000000000000 ) ) ;
#41 = DIRECTION ( 'NONE',  ( 0.0000000000000000000, 0.0000000000000000000, 1.000000000000000000 ) ) ;
#42 = CYLINDRICAL_SURFACE ( 'NONE', #150, 32.00000000000000000 ) ;
#43 = DIRECTION ( 'NONE',  ( 0.0000000000000000000, 0.0000000000000000000, 1.000000000000000000 ) ) ;
#44 = AXIS2_PLACEMENT_3D ( 'NONE', #84, #309, #335 ) ;
#45 = EDGE_LOOP ( 'NONE', ( #301, #346, #245, #341 ) ) ;
#46 = ADVANCED_FACE ( 'NONE', ( #360 ), #126, .F. ) ;
#47 = ORIENTED_EDGE ( 'NONE', *, *, #164, .F. ) ;
#48 = CARTESIAN_POINT ( 'NONE',  ( 54.99999999999999289, 3.918869757271530263E-15, -32.00000000000000000 ) ) ;
#49 = VECTOR ( 'NONE', #202, 1000.000000000000000 ) ;
#50 = DIRECTION ( 'NONE',  ( -1.000000000000000000, -0.0000000000000000000, -0.0000000000000000000 ) ) ;
#51 = EDGE_CURVE ( 'NONE', #282, #74, #151, .T. ) ;
#52 = AXIS2_PLACEMENT_3D ( 'NONE', #87, #118, #35 ) ;
#53 = DIRECTION ( 'NONE',  ( -1.000000000000000000, -0.0000000000000000000, -0.0000000000000000000 ) ) ;
#54 = DIRECTION ( 'NONE',  ( -1.000000000000000000, -0.0000000000000000000, -0.0000000000000000000 ) ) ;
#55 = EDGE_LOOP ( 'NONE', ( #163, #162 ) ) ;
#56 = DIRECTION ( 'NONE',  ( -1.000000000000000000, -0.0000000000000000000, -0.0000000000000000000 ) ) ;
#57 = DIRECTION ( 'NONE',  ( -1.000000000000000000, -0.0000000000000000000, -0.0000000000000000000 ) ) ;
#58 = EDGE_LOOP ( 'NONE', ( #264, #187 ) ) ;
#59 = EDGE_CURVE ( 'NONE', #106, #184, #38, .T. ) ;
#60 = FACE_OUTER_BOUND ( 'NONE', #45, .T. ) ;
#61 = TOROIDAL_SURFACE ( 'NONE', #263, 33.75000000000000000, 3.000000000000000444 ) ;
#62 = CARTESIAN_POINT ( 'NONE',  ( 54.99999999999999289, 0.0000000000000000000, 33.50000000000000000 ) ) ;
#63 = COLOUR_RGB ( '',0.7921568627450980005, 0.8196078431372548767, 0.9333333333333333481 ) ;
#64 = ORIENTED_EDGE ( 'NONE', *, *, #299, .F. ) ;
#65 = EDGE_LOOP ( 'NONE', ( #47, #195 ) ) ;
#66 =( LENGTH_UNIT ( ) NAMED_UNIT ( * ) SI_UNIT ( .MILLI., .METRE. ) );
#67 = AXIS2_PLACEMENT_3D ( 'NONE', #275, #221, #83 ) ;
#68 = FACE_OUTER_BOUND ( 'NONE', #55, .T. ) ;
#69 = DIRECTION ( 'NONE',  ( 0.0000000000000000000, 0.0000000000000000000, 1.000000000000000000 ) ) ;
#70 = CARTESIAN_POINT ( 'NONE',  ( -17.47792894757627025, 0.0000000000000000000, 0.0000000000000000000 ) ) ;
#71 = SURFACE_STYLE_USAGE ( .BOTH. , #342 ) ;
#72 = FACE_OUTER_BOUND ( 'NONE', #173, .T. ) ;
#73 = ORIENTED_EDGE ( 'NONE', *, *, #320, .F. ) ;
#74 = VERTEX_POINT ( 'NONE', #267 ) ;
#75 = ORIENTED_EDGE ( 'NONE', *, *, #320, .T. ) ;
#76 = ORIENTED_EDGE ( 'NONE', *, *, #90, .T. ) ;
#77 = AXIS2_PLACEMENT_3D ( 'NONE', #154, #288, #3 ) ;
#78 = DIRECTION ( 'NONE',  ( 0.0000000000000000000, 0.0000000000000000000, -1.000000000000000000 ) ) ;
#79 = MANIFOLD_SOLID_BREP ( 'DeleteFace1', #129 ) ;
#80 = ORIENTED_EDGE ( 'NONE', *, *, #177, .T. ) ;
#81 = CARTESIAN_POINT ( 'NONE',  ( -17.47792894757627025, 0.0000000000000000000, 32.00000000000000000 ) ) ;
#82 = AXIS2_PLACEMENT_3D ( 'NONE', #171, #56, #363 ) ;
#83 = DIRECTION ( 'NONE',  ( 0.0000000000000000000, 0.0000000000000000000, 1.000000000000000000 ) ) ;
#84 = CARTESIAN_POINT ( 'NONE',  ( 0.0000000000000000000, 0.0000000000000000000, 0.0000000000000000000 ) ) ;
#85 = ORIENTED_EDGE ( 'NONE', *, *, #18, .T. ) ;
#86 = EDGE_CURVE ( 'NONE', #180, #179, #329, .T. ) ;
#87 = CARTESIAN_POINT ( 'NONE',  ( -55.00000000000000000, 33.50000000000000000, 0.0000000000000000000 ) ) ;
#88 = CARTESIAN_POINT ( 'NONE',  ( -2.436698586202240335, 3.918869757271530263E-15, -32.00000000000000000 ) ) ;
#89 = DIRECTION ( 'NONE',  ( 0.0000000000000000000, 0.0000000000000000000, 1.000000000000000000 ) ) ;
#90 = EDGE_CURVE ( 'NONE', #196, #168, #318, .T. ) ;
#91 = STYLED_ITEM ( 'NONE', ( #272 ), #79 ) ;
#92 =( LENGTH_UNIT ( ) NAMED_UNIT ( * ) SI_UNIT ( .MILLI., .METRE. ) );
#93 = ADVANCED_BREP_SHAPE_REPRESENTATION ( '2046626', ( #79, #366 ), #285 ) ;
#94 = FILL_AREA_STYLE ('',( #98 ) ) ;
#95 = DIRECTION ( 'NONE',  ( 0.0000000000000000000, 0.0000000000000000000, 1.000000000000000000 ) ) ;
#96 = ORIENTED_EDGE ( 'NONE', *, *, #302, .T. ) ;
#97 = ORIENTED_EDGE ( 'NONE', *, *, #281, .F. ) ;
#98 = FILL_AREA_STYLE_COLOUR ( '', #322 ) ;
#99 = EDGE_CURVE ( 'NONE', #223, #155, #130, .T. ) ;
#100 = CIRCLE ( 'NONE', #321, 32.00000000000000000 ) ;
#101 = ORIENTED_EDGE ( 'NONE', *, *, #30, .T. ) ;
#102 = ORIENTED_EDGE ( 'NONE', *, *, #190, .F. ) ;
#103 = ADVANCED_FACE ( 'NONE', ( #36 ), #354, .T. ) ;
#104 = VECTOR ( 'NONE', #50, 1000.000000000000000 ) ;
#105 = AXIS2_PLACEMENT_3D ( 'NONE', #205, #40, #260 ) ;
#106 = VERTEX_POINT ( 'NONE', #48 ) ;
#107 = ORIENTED_EDGE ( 'NONE', *, *, #99, .F. ) ;
#108 = ADVANCED_FACE ( 'NONE', ( #339 ), #271, .F. ) ;
#109 = LINE ( 'NONE', #340, #286 ) ;
#110 = DIRECTION ( 'NONE',  ( -1.000000000000000000, -0.0000000000000000000, -0.0000000000000000000 ) ) ;
#111 = ORIENTED_EDGE ( 'NONE', *, *, #135, .T. ) ;
#112 = EDGE_CURVE ( 'NONE', #168, #74, #24, .T. ) ;
#113 =( NAMED_UNIT ( * ) SI_UNIT ( $, .STERADIAN. ) SOLID_ANGLE_UNIT ( ) );
#114 = DIRECTION ( 'NONE',  ( 0.0000000000000000000, -1.000000000000000000, 0.0000000000000000000 ) ) ;
#115 = VECTOR ( 'NONE', #139, 1000.000000000000000 ) ;
#116 = ORIENTED_EDGE ( 'NONE', *, *, #30, .F. ) ;
#117 = CARTESIAN_POINT ( 'NONE',  ( -55.00000000000000000, 0.0000000000000000000, 33.50000000000000000 ) ) ;
#118 = DIRECTION ( 'NONE',  ( 1.000000000000000000, 0.0000000000000000000, 0.0000000000000000000 ) ) ;
#119 = CARTESIAN_POINT ( 'NONE',  ( -55.00000000000000000, 0.0000000000000000000, 0.0000000000000000000 ) ) ;
#120 = EDGE_CURVE ( 'NONE', #184, #74, #294, .T. ) ;
#121 = CIRCLE ( 'NONE', #273, 33.50000000000000000 ) ;
#122 = ORIENTED_EDGE ( 'NONE', *, *, #217, .T. ) ;
#123 = AXIS2_PLACEMENT_3D ( 'NONE', #280, #334, #89 ) ;
#124 = DIRECTION ( 'NONE',  ( -1.000000000000000000, -0.0000000000000000000, -0.0000000000000000000 ) ) ;
#125 = CIRCLE ( 'NONE', #77, 33.50000000000000000 ) ;
#126 = CYLINDRICAL_SURFACE ( 'NONE', #31, 32.00000000000000000 ) ;
#127 = ORIENTED_EDGE ( 'NONE', *, *, #135, .F. ) ;
#128 = TOROIDAL_SURFACE ( 'NONE', #44, 33.75000000000000000, 3.000000000000000444 ) ;
#129 = CLOSED_SHELL ( 'NONE', ( #216, #218, #353, #46, #266, #293, #214, #323, #160, #108, #297, #103 ) ) ;
#130 = LINE ( 'NONE', #193, #104 ) ;
#131 = PRODUCT_DEFINITION_CONTEXT ( 'detailed design', #345, 'design' ) ;
#132 = SHAPE_DEFINITION_REPRESENTATION ( #200, #93 ) ;
#133 = CIRCLE ( 'NONE', #249, 30.75000000000000355 ) ;
#134 = ORIENTED_EDGE ( 'NONE', *, *, #18, .F. ) ;
#135 = EDGE_CURVE ( 'NONE', #179, #208, #257, .T. ) ;
#136 = CIRCLE ( 'NONE', #22, 2.999999999999999112 ) ;
#137 = AXIS2_PLACEMENT_3D ( 'NONE', #197, #246, #32 ) ;
#138 = EDGE_CURVE ( 'NONE', #238, #208, #14, .T. ) ;
#139 = DIRECTION ( 'NONE',  ( -1.000000000000000000, -0.0000000000000000000, -0.0000000000000000000 ) ) ;
#140 = CARTESIAN_POINT ( 'NONE',  ( -55.00000000000000000, 0.0000000000000000000, 0.0000000000000000000 ) ) ;
#141 = CIRCLE ( 'NONE', #213, 32.00000000000000000 ) ;
#142 = AXIS2_PLACEMENT_3D ( 'NONE', #119, #307, #146 ) ;
#143 = CARTESIAN_POINT ( 'NONE',  ( -55.00000000000000000, 3.918869757271530263E-15, -32.00000000000000000 ) ) ;
#144 = EDGE_LOOP ( 'NONE', ( #304, #85, #5, #127 ) ) ;
#145 = DIRECTION ( 'NONE',  ( 0.0000000000000000000, -1.224646799147353454E-16, 1.000000000000000000 ) ) ;
#146 = DIRECTION ( 'NONE',  ( 0.0000000000000000000, 0.0000000000000000000, 1.000000000000000000 ) ) ;
#147 = CIRCLE ( 'NONE', #226, 32.00000000000000000 ) ;
#148 = DIRECTION ( 'NONE',  ( -1.000000000000000000, -0.0000000000000000000, -0.0000000000000000000 ) ) ;
#149 = CARTESIAN_POINT ( 'NONE',  ( 0.0000000000000000000, 4.133182947122317561E-15, -33.75000000000000000 ) ) ;
#150 = AXIS2_PLACEMENT_3D ( 'NONE', #182, #229, #8 ) ;
#151 = CIRCLE ( 'NONE', #347, 2.999999999999999112 ) ;
#152 = VERTEX_POINT ( 'NONE', #117 ) ;
#153 = DIRECTION ( 'NONE',  ( 0.0000000000000000000, 0.0000000000000000000, 1.000000000000000000 ) ) ;
#154 = CARTESIAN_POINT ( 'NONE',  ( -55.00000000000000000, 0.0000000000000000000, 0.0000000000000000000 ) ) ;
#155 = VERTEX_POINT ( 'NONE', #326 ) ;
#156 = EDGE_LOOP ( 'NONE', ( #73, #102, #367, #295 ) ) ;
#157 = PRODUCT_CONTEXT ( 'NONE', #185, 'mechanical' ) ;
#158 = AXIS2_PLACEMENT_3D ( 'NONE', #199, #365, #34 ) ;
#159 = TOROIDAL_SURFACE ( 'NONE', #265, 33.75000000000000000, 3.000000000000000444 ) ;
#160 = ADVANCED_FACE ( 'NONE', ( #227 ), #159, .T. ) ;
#161 = ORIENTED_EDGE ( 'NONE', *, *, #99, .T. ) ;
#162 = ORIENTED_EDGE ( 'NONE', *, *, #281, .T. ) ;
#163 = ORIENTED_EDGE ( 'NONE', *, *, #33, .T. ) ;
#164 = EDGE_CURVE ( 'NONE', #287, #223, #236, .T. ) ;
#165 = CIRCLE ( 'NONE', #7, 33.50000000000000000 ) ;
#166 = DIRECTION ( 'NONE',  ( 0.0000000000000000000, 0.0000000000000000000, 1.000000000000000000 ) ) ;
#167 = CIRCLE ( 'NONE', #311, 2.999999999999999112 ) ;
#168 = VERTEX_POINT ( 'NONE', #224 ) ;
#169 = DIRECTION ( 'NONE',  ( -1.000000000000000000, -0.0000000000000000000, -0.0000000000000000000 ) ) ;
#170 = DIRECTION ( 'NONE',  ( 0.0000000000000000000, -1.000000000000000000, 0.0000000000000000000 ) ) ;
#171 = CARTESIAN_POINT ( 'NONE',  ( 54.99999999999999289, 0.0000000000000000000, 0.0000000000000000000 ) ) ;
#172 = CARTESIAN_POINT ( 'NONE',  ( 54.99999999999999289, 0.0000000000000000000, 0.0000000000000000000 ) ) ;
#173 = EDGE_LOOP ( 'NONE', ( #296, #96, #76, #4 ) ) ;
#174 = ORIENTED_EDGE ( 'NONE', *, *, #112, .T. ) ;
#175 = CARTESIAN_POINT ( 'NONE',  ( -2.436698586202240335, 0.0000000000000000000, 0.0000000000000000000 ) ) ;
#176 = EDGE_CURVE ( 'NONE', #287, #152, #308, .T. ) ;
#177 = EDGE_CURVE ( 'NONE', #180, #196, #136, .T. ) ;
#178 = CARTESIAN_POINT ( 'NONE',  ( 54.99999999999999289, 0.0000000000000000000, 0.0000000000000000000 ) ) ;
#179 = VERTEX_POINT ( 'NONE', #251 ) ;
#180 = VERTEX_POINT ( 'NONE', #88 ) ;
#181 = DIRECTION ( 'NONE',  ( 0.0000000000000000000, 0.0000000000000000000, 1.000000000000000000 ) ) ;
#182 = CARTESIAN_POINT ( 'NONE',  ( -17.47792894757627025, 0.0000000000000000000, 0.0000000000000000000 ) ) ;
#183 =( NAMED_UNIT ( * ) PLANE_ANGLE_UNIT ( ) SI_UNIT ( $, .RADIAN. ) );
#184 = VERTEX_POINT ( 'NONE', #228 ) ;
#185 = APPLICATION_CONTEXT ( 'automotive_design' ) ;
#186 = CYLINDRICAL_SURFACE ( 'NONE', #337, 33.50000000000000000 ) ;
#187 = ORIENTED_EDGE ( 'NONE', *, *, #59, .T. ) ;
#188 = FACE_OUTER_BOUND ( 'NONE', #65, .T. ) ;
#189 = DIRECTION ( 'NONE',  ( 0.0000000000000000000, 0.0000000000000000000, 1.000000000000000000 ) ) ;
#190 = EDGE_CURVE ( 'NONE', #184, #106, #141, .T. ) ;
#191 =( GEOMETRIC_REPRESENTATION_CONTEXT ( 3 ) GLOBAL_UNCERTAINTY_ASSIGNED_CONTEXT ( ( #336 ) ) GLOBAL_UNIT_ASSIGNED_CONTEXT ( ( #270, #192, #113 ) ) REPRESENTATION_CONTEXT ( 'NONE', 'WORKASPACE' ) );
#192 =( NAMED_UNIT ( * ) PLANE_ANGLE_UNIT ( ) SI_UNIT ( $, .RADIAN. ) );
#193 = CARTESIAN_POINT ( 'NONE',  ( -17.47792894757627025, 4.102566777143633774E-15, -33.50000000000000000 ) ) ;
#194 = CARTESIAN_POINT ( 'NONE',  ( 0.0000000000000000000, 0.0000000000000000000, 33.75000000000000000 ) ) ;
#195 = ORIENTED_EDGE ( 'NONE', *, *, #243, .F. ) ;
#196 = VERTEX_POINT ( 'NONE', #276 ) ;
#197 = CARTESIAN_POINT ( 'NONE',  ( 0.0000000000000000000, 4.133182947122317561E-15, -33.75000000000000000 ) ) ;
#198 = AXIS2_PLACEMENT_3D ( 'NONE', #298, #54, #357 ) ;
#199 = CARTESIAN_POINT ( 'NONE',  ( -55.00000000000000000, 0.0000000000000000000, 0.0000000000000000000 ) ) ;
#200 = PRODUCT_DEFINITION_SHAPE ( 'NONE', 'NONE',  #256 ) ;
#201 = DIRECTION ( 'NONE',  ( 0.0000000000000000000, 0.0000000000000000000, 1.000000000000000000 ) ) ;
#202 = DIRECTION ( 'NONE',  ( -1.000000000000000000, -0.0000000000000000000, -0.0000000000000000000 ) ) ;
#203 = ORIENTED_EDGE ( 'NONE', *, *, #217, .F. ) ;
#204 = PLANE ( 'NONE',  #52 ) ;
#205 = CARTESIAN_POINT ( 'NONE',  ( 55.00000000000000000, 33.50000000000000000, 0.0000000000000000000 ) ) ;
#206 = VECTOR ( 'NONE', #110, 1000.000000000000000 ) ;
#207 = CARTESIAN_POINT ( 'NONE',  ( -17.47792894757627025, 0.0000000000000000000, 0.0000000000000000000 ) ) ;
#208 = VERTEX_POINT ( 'NONE', #277 ) ;
#209 =( NAMED_UNIT ( * ) SI_UNIT ( $, .STERADIAN. ) SOLID_ANGLE_UNIT ( ) );
#210 = APPLICATION_PROTOCOL_DEFINITION ( 'draft international standard', 'automotive_design', 1998, #185 ) ;
#211 = SURFACE_STYLE_FILL_AREA ( #328 ) ;
#212 = EDGE_LOOP ( 'NONE', ( #240, #116, #122, #80 ) ) ;
#213 = AXIS2_PLACEMENT_3D ( 'NONE', #172, #278, #201 ) ;
#214 = ADVANCED_FACE ( 'NONE', ( #6, #68 ), #204, .F. ) ;
#215 = ORIENTED_EDGE ( 'NONE', *, *, #86, .T. ) ;
#216 = ADVANCED_FACE ( 'NONE', ( #60 ), #61, .T. ) ;
#217 = EDGE_CURVE ( 'NONE', #179, #180, #147, .T. ) ;
#218 = ADVANCED_FACE ( 'NONE', ( #72 ), #128, .T. ) ;
#219 = CARTESIAN_POINT ( 'NONE',  ( -17.47792894757627025, 3.918869757271530263E-15, -32.00000000000000000 ) ) ;
#220 = CARTESIAN_POINT ( 'NONE',  ( -2.436698586202240335, 0.0000000000000000000, 0.0000000000000000000 ) ) ;
#221 = DIRECTION ( 'NONE',  ( -1.000000000000000000, -0.0000000000000000000, -0.0000000000000000000 ) ) ;
#222 = CARTESIAN_POINT ( 'NONE',  ( 54.99999999999999289, 4.102566777143633774E-15, -33.50000000000000000 ) ) ;
#223 = VERTEX_POINT ( 'NONE', #222 ) ;
#224 = CARTESIAN_POINT ( 'NONE',  ( 2.436698586202240335, 3.918869757271530263E-15, -32.00000000000000000 ) ) ;
#225 = DIRECTION ( 'NONE',  ( -1.000000000000000000, -0.0000000000000000000, -0.0000000000000000000 ) ) ;
#226 = AXIS2_PLACEMENT_3D ( 'NONE', #175, #225, #250 ) ;
#227 = FACE_OUTER_BOUND ( 'NONE', #355, .T. ) ;
#228 = CARTESIAN_POINT ( 'NONE',  ( 54.99999999999999289, 0.0000000000000000000, 32.00000000000000000 ) ) ;
#229 = DIRECTION ( 'NONE',  ( -1.000000000000000000, -0.0000000000000000000, -0.0000000000000000000 ) ) ;
#230 = CARTESIAN_POINT ( 'NONE',  ( 0.0000000000000000000, 0.0000000000000000000, 0.0000000000000000000 ) ) ;
#231 = AXIS2_PLACEMENT_3D ( 'NONE', #332, #325, #189 ) ;
#232 = DIRECTION ( 'NONE',  ( -1.000000000000000000, -0.0000000000000000000, -0.0000000000000000000 ) ) ;
#233 = ORIENTED_EDGE ( 'NONE', *, *, #176, .F. ) ;
#234 = CIRCLE ( 'NONE', #142, 32.00000000000000000 ) ;
#235 = EDGE_CURVE ( 'NONE', #208, #238, #234, .T. ) ;
#236 = CIRCLE ( 'NONE', #123, 33.50000000000000000 ) ;
#237 = FACE_OUTER_BOUND ( 'NONE', #361, .T. ) ;
#238 = VERTEX_POINT ( 'NONE', #143 ) ;
#239 = CARTESIAN_POINT ( 'NONE',  ( 0.0000000000000000000, 0.0000000000000000000, 33.75000000000000000 ) ) ;
#240 = ORIENTED_EDGE ( 'NONE', *, *, #302, .F. ) ;
#241 = CIRCLE ( 'NONE', #244, 30.75000000000000355 ) ;
#242 = DIRECTION ( 'NONE',  ( 0.0000000000000000000, 0.0000000000000000000, 1.000000000000000000 ) ) ;
#243 = EDGE_CURVE ( 'NONE', #223, #287, #165, .T. ) ;
#244 = AXIS2_PLACEMENT_3D ( 'NONE', #284, #124, #181 ) ;
#245 = ORIENTED_EDGE ( 'NONE', *, *, #51, .T. ) ;
#246 = DIRECTION ( 'NONE',  ( -0.0000000000000000000, 1.000000000000000000, 1.224646799147353207E-16 ) ) ;
#247 = CARTESIAN_POINT ( 'NONE',  ( 0.0000000000000000000, 0.0000000000000000000, 0.0000000000000000000 ) ) ;
#248 = ORIENTED_EDGE ( 'NONE', *, *, #243, .T. ) ;
#249 = AXIS2_PLACEMENT_3D ( 'NONE', #262, #255, #153 ) ;
#250 = DIRECTION ( 'NONE',  ( 0.0000000000000000000, 0.0000000000000000000, 1.000000000000000000 ) ) ;
#251 = CARTESIAN_POINT ( 'NONE',  ( -2.436698586202240335, 0.0000000000000000000, 32.00000000000000000 ) ) ;
#252 = FACE_OUTER_BOUND ( 'NONE', #27, .T. ) ;
#253 = DIRECTION ( 'NONE',  ( 0.0000000000000000000, 0.0000000000000000000, 1.000000000000000000 ) ) ;
#254 = DIRECTION ( 'NONE',  ( -1.000000000000000000, -0.0000000000000000000, -0.0000000000000000000 ) ) ;
#255 = DIRECTION ( 'NONE',  ( -1.000000000000000000, -0.0000000000000000000, -0.0000000000000000000 ) ) ;
#256 = PRODUCT_DEFINITION ( 'UNKNOWN', '', #303, #131 ) ;
#257 = LINE ( 'NONE', #81, #115 ) ;
#258 =( NAMED_UNIT ( * ) SI_UNIT ( $, .STERADIAN. ) SOLID_ANGLE_UNIT ( ) );
#259 = EDGE_LOOP ( 'NONE', ( #11, #274 ) ) ;
#260 = DIRECTION ( 'NONE',  ( -0.0000000000000000000, 0.0000000000000000000, 1.000000000000000000 ) ) ;
#261 = PLANE ( 'NONE',  #105 ) ;
#262 = CARTESIAN_POINT ( 'NONE',  ( 3.673940397442060361E-16, 0.0000000000000000000, 0.0000000000000000000 ) ) ;
#263 = AXIS2_PLACEMENT_3D ( 'NONE', #305, #254, #310 ) ;
#264 = ORIENTED_EDGE ( 'NONE', *, *, #190, .T. ) ;
#265 = AXIS2_PLACEMENT_3D ( 'NONE', #247, #57, #253 ) ;
#266 = ADVANCED_FACE ( 'NONE', ( #348 ), #327, .T. ) ;
#267 = CARTESIAN_POINT ( 'NONE',  ( 2.436698586202240335, 0.0000000000000000000, 32.00000000000000000 ) ) ;
#268 = ORIENTED_EDGE ( 'NONE', *, *, #33, .F. ) ;
#269 = DIRECTION ( 'NONE',  ( 0.0000000000000000000, 0.0000000000000000000, 1.000000000000000000 ) ) ;
#270 =( LENGTH_UNIT ( ) NAMED_UNIT ( * ) SI_UNIT ( .MILLI., .METRE. ) );
#271 = CYLINDRICAL_SURFACE ( 'NONE', #67, 32.00000000000000000 ) ;
#272 = PRESENTATION_STYLE_ASSIGNMENT (( #23 ) ) ;
#273 = AXIS2_PLACEMENT_3D ( 'NONE', #140, #330, #242 ) ;
#274 = ORIENTED_EDGE ( 'NONE', *, *, #138, .F. ) ;
#275 = CARTESIAN_POINT ( 'NONE',  ( -17.47792894757627025, 0.0000000000000000000, 0.0000000000000000000 ) ) ;
#276 = CARTESIAN_POINT ( 'NONE',  ( 3.673940397442061840E-16, 3.765788907378111328E-15, -30.75000000000000355 ) ) ;
#277 = CARTESIAN_POINT ( 'NONE',  ( -55.00000000000000000, 0.0000000000000000000, 32.00000000000000000 ) ) ;
#278 = DIRECTION ( 'NONE',  ( -1.000000000000000000, -0.0000000000000000000, -0.0000000000000000000 ) ) ;
#279 = AXIS2_PLACEMENT_3D ( 'NONE', #207, #12, #43 ) ;
#280 = CARTESIAN_POINT ( 'NONE',  ( 54.99999999999999289, 0.0000000000000000000, 0.0000000000000000000 ) ) ;
#281 = EDGE_CURVE ( 'NONE', #155, #152, #125, .T. ) ;
#282 = VERTEX_POINT ( 'NONE', #283 ) ;
#283 = CARTESIAN_POINT ( 'NONE',  ( 3.673940397442061840E-16, 0.0000000000000000000, 30.75000000000000355 ) ) ;
#284 = CARTESIAN_POINT ( 'NONE',  ( 3.673940397442060361E-16, 0.0000000000000000000, 0.0000000000000000000 ) ) ;
#285 =( GEOMETRIC_REPRESENTATION_CONTEXT ( 3 ) GLOBAL_UNCERTAINTY_ASSIGNED_CONTEXT ( ( #1 ) ) GLOBAL_UNIT_ASSIGNED_CONTEXT ( ( #66, #344, #258 ) ) REPRESENTATION_CONTEXT ( 'NONE', 'WORKASPACE' ) );
#286 = VECTOR ( 'NONE', #316, 1000.000000000000000 ) ;
#287 = VERTEX_POINT ( 'NONE', #62 ) ;
#288 = DIRECTION ( 'NONE',  ( -1.000000000000000000, -0.0000000000000000000, -0.0000000000000000000 ) ) ;
#289 = SURFACE_STYLE_FILL_AREA ( #94 ) ;
#290 = ORIENTED_EDGE ( 'NONE', *, *, #177, .F. ) ;
#291 = AXIS2_PLACEMENT_3D ( 'NONE', #37, #148, #95 ) ;
#292 = DIRECTION ( 'NONE',  ( -1.000000000000000000, -0.0000000000000000000, -0.0000000000000000000 ) ) ;
#293 = ADVANCED_FACE ( 'NONE', ( #350 ), #349, .F. ) ;
#294 = LINE ( 'NONE', #362, #206 ) ;
#295 = ORIENTED_EDGE ( 'NONE', *, *, #313, .T. ) ;
#296 = ORIENTED_EDGE ( 'NONE', *, *, #51, .F. ) ;
#297 = ADVANCED_FACE ( 'NONE', ( #188, #364 ), #261, .F. ) ;
#298 = CARTESIAN_POINT ( 'NONE',  ( -17.47792894757627025, 0.0000000000000000000, 0.0000000000000000000 ) ) ;
#299 = EDGE_CURVE ( 'NONE', #196, #282, #133, .T. ) ;
#300 = MECHANICAL_DESIGN_GEOMETRIC_PRESENTATION_REPRESENTATION (  '', ( #91 ), #191 ) ;
#301 = ORIENTED_EDGE ( 'NONE', *, *, #90, .F. ) ;
#302 = EDGE_CURVE ( 'NONE', #282, #196, #241, .T. ) ;
#303 = PRODUCT_DEFINITION_FORMATION_WITH_SPECIFIED_SOURCE ( 'ANY', '', #356, .NOT_KNOWN. ) ;
#304 = ORIENTED_EDGE ( 'NONE', *, *, #86, .F. ) ;
#305 = CARTESIAN_POINT ( 'NONE',  ( 0.0000000000000000000, 0.0000000000000000000, 0.0000000000000000000 ) ) ;
#306 = PRESENTATION_LAYER_ASSIGNMENT (  '', '', ( #359 ) ) ;
#307 = DIRECTION ( 'NONE',  ( -1.000000000000000000, -0.0000000000000000000, -0.0000000000000000000 ) ) ;
#308 = LINE ( 'NONE', #39, #49 ) ;
#309 = DIRECTION ( 'NONE',  ( -1.000000000000000000, -0.0000000000000000000, -0.0000000000000000000 ) ) ;
#310 = DIRECTION ( 'NONE',  ( 0.0000000000000000000, 0.0000000000000000000, 1.000000000000000000 ) ) ;
#311 = AXIS2_PLACEMENT_3D ( 'NONE', #239, #114, #29 ) ;
#312 = DIRECTION ( 'NONE',  ( 0.0000000000000000000, 0.0000000000000000000, 1.000000000000000000 ) ) ;
#313 = EDGE_CURVE ( 'NONE', #74, #168, #100, .T. ) ;
#314 = DIRECTION ( 'NONE',  ( 0.0000000000000000000, 0.0000000000000000000, 1.000000000000000000 ) ) ;
#315 = LINE ( 'NONE', #219, #26 ) ;
#316 = DIRECTION ( 'NONE',  ( -1.000000000000000000, -0.0000000000000000000, -0.0000000000000000000 ) ) ;
#317 = CARTESIAN_POINT ( 'NONE',  ( 2.436698586202240335, 0.0000000000000000000, 0.0000000000000000000 ) ) ;
#318 = CIRCLE ( 'NONE', #137, 2.999999999999999112 ) ;
#319 = ORIENTED_EDGE ( 'NONE', *, *, #164, .T. ) ;
#320 = EDGE_CURVE ( 'NONE', #106, #168, #109, .T. ) ;
#321 = AXIS2_PLACEMENT_3D ( 'NONE', #317, #232, #41 ) ;
#322 = COLOUR_RGB ( '',0.7921568627450980005, 0.8196078431372548767, 0.9333333333333333481 ) ;
#323 = ADVANCED_FACE ( 'NONE', ( #237 ), #42, .F. ) ;
#324 =( GEOMETRIC_REPRESENTATION_CONTEXT ( 3 ) GLOBAL_UNCERTAINTY_ASSIGNED_CONTEXT ( ( #15 ) ) GLOBAL_UNIT_ASSIGNED_CONTEXT ( ( #92, #183, #209 ) ) REPRESENTATION_CONTEXT ( 'NONE', 'WORKASPACE' ) );
#325 = DIRECTION ( 'NONE',  ( -1.000000000000000000, -0.0000000000000000000, -0.0000000000000000000 ) ) ;
#326 = CARTESIAN_POINT ( 'NONE',  ( -55.00000000000000000, 4.102566777143633774E-15, -33.50000000000000000 ) ) ;
#327 = TOROIDAL_SURFACE ( 'NONE', #291, 33.75000000000000000, 3.000000000000000444 ) ;
#328 = FILL_AREA_STYLE ('',( #28 ) ) ;
#329 = CIRCLE ( 'NONE', #21, 32.00000000000000000 ) ;
#330 = DIRECTION ( 'NONE',  ( -1.000000000000000000, -0.0000000000000000000, -0.0000000000000000000 ) ) ;
#331 = ORIENTED_EDGE ( 'NONE', *, *, #59, .F. ) ;
#332 = CARTESIAN_POINT ( 'NONE',  ( 2.436698586202240335, 0.0000000000000000000, 0.0000000000000000000 ) ) ;
#333 = DIRECTION ( 'NONE',  ( -0.0000000000000000000, 1.000000000000000000, 1.224646799147353207E-16 ) ) ;
#334 = DIRECTION ( 'NONE',  ( -1.000000000000000000, -0.0000000000000000000, -0.0000000000000000000 ) ) ;
#335 = DIRECTION ( 'NONE',  ( 0.0000000000000000000, 0.0000000000000000000, 1.000000000000000000 ) ) ;
#336 = UNCERTAINTY_MEASURE_WITH_UNIT (LENGTH_MEASURE( 1.000000000000000082E-05 ), #270, 'distance_accuracy_value', 'NONE');
#337 = AXIS2_PLACEMENT_3D ( 'NONE', #70, #338, #312 ) ;
#338 = DIRECTION ( 'NONE',  ( -1.000000000000000000, -0.0000000000000000000, -0.0000000000000000000 ) ) ;
#339 = FACE_OUTER_BOUND ( 'NONE', #156, .T. ) ;
#340 = CARTESIAN_POINT ( 'NONE',  ( -17.47792894757627025, 3.918869757271530263E-15, -32.00000000000000000 ) ) ;
#341 = ORIENTED_EDGE ( 'NONE', *, *, #112, .F. ) ;
#342 = SURFACE_SIDE_STYLE ('',( #289 ) ) ;
#343 = PRODUCT_RELATED_PRODUCT_CATEGORY ( 'part', '', ( #356 ) ) ;
#344 =( NAMED_UNIT ( * ) PLANE_ANGLE_UNIT ( ) SI_UNIT ( $, .RADIAN. ) );
#345 = APPLICATION_CONTEXT ( 'automotive_design' ) ;
#346 = ORIENTED_EDGE ( 'NONE', *, *, #299, .T. ) ;
#347 = AXIS2_PLACEMENT_3D ( 'NONE', #194, #170, #78 ) ;
#348 = FACE_OUTER_BOUND ( 'NONE', #212, .T. ) ;
#349 = CYLINDRICAL_SURFACE ( 'NONE', #279, 32.00000000000000000 ) ;
#350 = FACE_OUTER_BOUND ( 'NONE', #144, .T. ) ;
#351 = ORIENTED_EDGE ( 'NONE', *, *, #176, .T. ) ;
#352 = EDGE_LOOP ( 'NONE', ( #107, #248, #351, #97 ) ) ;
#353 = ADVANCED_FACE ( 'NONE', ( #252 ), #186, .T. ) ;
#354 = CYLINDRICAL_SURFACE ( 'NONE', #198, 33.50000000000000000 ) ;
#355 = EDGE_LOOP ( 'NONE', ( #64, #290, #215, #101 ) ) ;
#356 = PRODUCT ( '2046626', '2046626', '', ( #157 ) ) ;
#357 = DIRECTION ( 'NONE',  ( 0.0000000000000000000, 0.0000000000000000000, 1.000000000000000000 ) ) ;
#358 = CARTESIAN_POINT ( 'NONE',  ( -17.47792894757627025, 0.0000000000000000000, 0.0000000000000000000 ) ) ;
#359 = STYLED_ITEM ( 'NONE', ( #19 ), #93 ) ;
#360 = FACE_OUTER_BOUND ( 'NONE', #10, .T. ) ;
#361 = EDGE_LOOP ( 'NONE', ( #134, #203, #111, #17 ) ) ;
#362 = CARTESIAN_POINT ( 'NONE',  ( -17.47792894757627025, 0.0000000000000000000, 32.00000000000000000 ) ) ;
#363 = DIRECTION ( 'NONE',  ( 0.0000000000000000000, 0.0000000000000000000, 1.000000000000000000 ) ) ;
#364 = FACE_BOUND ( 'NONE', #58, .T. ) ;
#365 = DIRECTION ( 'NONE',  ( -1.000000000000000000, -0.0000000000000000000, -0.0000000000000000000 ) ) ;
#366 = AXIS2_PLACEMENT_3D ( 'NONE', #230, #69, #9 ) ;
#367 = ORIENTED_EDGE ( 'NONE', *, *, #120, .T. ) ;
#368 = PRESENTATION_LAYER_ASSIGNMENT (  '', '', ( #91 ) ) ;
ENDSEC;
END-ISO-10303-21;
