ISO-10303-21;
HEADER;
FILE_DESCRIPTION (( 'STEP AP214' ),
    '1' );
FILE_NAME ('2046566.stp',
    '2017-05-23T11:34:57',
    ( '' ),
    ( '' ),
    'SwSTEP 2.0',
    'SolidWorks 2016',
    '' );
FILE_SCHEMA (( 'AUTOMOTIVE_DESIGN' ));
ENDSEC;

DATA;
#1 = ADVANCED_FACE ( 'NONE', ( #214 ), #44, .T. ) ;
#2 = AXIS2_PLACEMENT_3D ( 'NONE', #125, #206, #123 ) ;
#3 = CARTESIAN_POINT ( 'NONE',  ( 0.0000000000000000000, 0.0000000000000000000, -3000.000000000000000 ) ) ;
#4 = PRODUCT_DEFINITION_CONTEXT ( 'detailed design', #171, 'design' ) ;
#5 = DIRECTION ( 'NONE',  ( 0.0000000000000000000, 0.0000000000000000000, 1.000000000000000000 ) ) ;
#6 = DIRECTION ( 'NONE',  ( 1.000000000000000000, 0.0000000000000000000, 0.0000000000000000000 ) ) ;
#7 = CARTESIAN_POINT ( 'NONE',  ( 0.0000000000000000000, 0.0000000000000000000, -3000.000000000000000 ) ) ;
#8 = EDGE_CURVE ( 'NONE', #27, #64, #9, .T. ) ;
#9 = CIRCLE ( 'NONE', #39, 10.00000000000000000 ) ;
#10 = VECTOR ( 'NONE', #155, 1000.000000000000000 ) ;
#11 = DIRECTION ( 'NONE',  ( 0.0000000000000000000, 0.0000000000000000000, 1.000000000000000000 ) ) ;
#12 = VERTEX_POINT ( 'NONE', #80 ) ;
#13 = CYLINDRICAL_SURFACE ( 'NONE', #69, 10.00000000000000000 ) ;
#14 = SURFACE_STYLE_FILL_AREA ( #180 ) ;
#15 = AXIS2_PLACEMENT_3D ( 'NONE', #55, #143, #195 ) ;
#16 = VERTEX_POINT ( 'NONE', #48 ) ;
#17 = FACE_OUTER_BOUND ( 'NONE', #78, .T. ) ;
#18 = EDGE_CURVE ( 'NONE', #12, #179, #90, .T. ) ;
#19 = DIRECTION ( 'NONE',  ( 1.000000000000000000, 0.0000000000000000000, 0.0000000000000000000 ) ) ;
#20 = ADVANCED_FACE ( 'NONE', ( #81 ), #13, .T. ) ;
#21 = DIRECTION ( 'NONE',  ( 1.000000000000000000, 0.0000000000000000000, 0.0000000000000000000 ) ) ;
#22 = ADVANCED_BREP_SHAPE_REPRESENTATION ( '2046566', ( #106, #122 ), #34 ) ;
#23 = ORIENTED_EDGE ( 'NONE', *, *, #212, .T. ) ;
#24 = DIRECTION ( 'NONE',  ( 0.0000000000000000000, 0.0000000000000000000, 1.000000000000000000 ) ) ;
#25 = AXIS2_PLACEMENT_3D ( 'NONE', #193, #166, #150 ) ;
#26 = SHAPE_DEFINITION_REPRESENTATION ( #109, #22 ) ;
#27 = VERTEX_POINT ( 'NONE', #33 ) ;
#28 = PRESENTATION_LAYER_ASSIGNMENT (  '', '', ( #126 ) ) ;
#29 = ORIENTED_EDGE ( 'NONE', *, *, #190, .F. ) ;
#30 = PLANE ( 'NONE',  #77 ) ;
#31 = ORIENTED_EDGE ( 'NONE', *, *, #198, .F. ) ;
#32 = PRESENTATION_STYLE_ASSIGNMENT (( #86 ) ) ;
#33 = CARTESIAN_POINT ( 'NONE',  ( 10.00000000000000000, 0.0000000000000000000, -3000.000000000000000 ) ) ;
#34 =( GEOMETRIC_REPRESENTATION_CONTEXT ( 3 ) GLOBAL_UNCERTAINTY_ASSIGNED_CONTEXT ( ( #153 ) ) GLOBAL_UNIT_ASSIGNED_CONTEXT ( ( #189, #165, #103 ) ) REPRESENTATION_CONTEXT ( 'NONE', 'WORKASPACE' ) );
#35 = ADVANCED_FACE ( 'NONE', ( #183, #41 ), #30, .F. ) ;
#36 = PLANE ( 'NONE',  #111 ) ;
#37 = CARTESIAN_POINT ( 'NONE',  ( 0.0000000000000000000, 0.0000000000000000000, -3000.000000000000000 ) ) ;
#38 = CARTESIAN_POINT ( 'NONE',  ( 0.0000000000000000000, 0.0000000000000000000, -3000.000000000000000 ) ) ;
#39 = AXIS2_PLACEMENT_3D ( 'NONE', #3, #5, #6 ) ;
#40 = ORIENTED_EDGE ( 'NONE', *, *, #8, .F. ) ;
#41 = FACE_OUTER_BOUND ( 'NONE', #115, .T. ) ;
#42 = DIRECTION ( 'NONE',  ( 0.0000000000000000000, 0.0000000000000000000, 1.000000000000000000 ) ) ;
#43 = DIRECTION ( 'NONE',  ( 1.000000000000000000, 0.0000000000000000000, -0.0000000000000000000 ) ) ;
#44 = CYLINDRICAL_SURFACE ( 'NONE', #46, 10.00000000000000000 ) ;
#45 = LINE ( 'NONE', #138, #10 ) ;
#46 = AXIS2_PLACEMENT_3D ( 'NONE', #38, #114, #21 ) ;
#47 = ADVANCED_FACE ( 'NONE', ( #140 ), #84, .F. ) ;
#48 = CARTESIAN_POINT ( 'NONE',  ( 10.00000000000000000, 0.0000000000000000000, 0.0000000000000000000 ) ) ;
#49 = DIRECTION ( 'NONE',  ( 1.000000000000000000, 0.0000000000000000000, 0.0000000000000000000 ) ) ;
#50 = ORIENTED_EDGE ( 'NONE', *, *, #198, .T. ) ;
#51 = CARTESIAN_POINT ( 'NONE',  ( -10.00000000000000000, 1.224646799147353300E-015, -3000.000000000000000 ) ) ;
#52 = FILL_AREA_STYLE_COLOUR ( '', #104 ) ;
#53 = DIRECTION ( 'NONE',  ( 1.000000000000000000, 0.0000000000000000000, -0.0000000000000000000 ) ) ;
#54 = CARTESIAN_POINT ( 'NONE',  ( 0.0000000000000000000, 0.0000000000000000000, -3000.000000000000000 ) ) ;
#55 = CARTESIAN_POINT ( 'NONE',  ( 0.0000000000000000000, 0.0000000000000000000, -3000.000000000000000 ) ) ;
#56 = STYLED_ITEM ( 'NONE', ( #99 ), #22 ) ;
#57 = UNCERTAINTY_MEASURE_WITH_UNIT (LENGTH_MEASURE( 1.000000000000000100E-005 ), #88, 'distance_accuracy_value', 'NONE');
#58 = EDGE_LOOP ( 'NONE', ( #207, #170, #31, #188 ) ) ;
#59 = DIRECTION ( 'NONE',  ( 0.0000000000000000000, 0.0000000000000000000, 1.000000000000000000 ) ) ;
#60 = ORIENTED_EDGE ( 'NONE', *, *, #100, .T. ) ;
#61 = CIRCLE ( 'NONE', #25, 10.00000000000000000 ) ;
#62 = FILL_AREA_STYLE_COLOUR ( '', #200 ) ;
#63 = ADVANCED_FACE ( 'NONE', ( #102, #17 ), #36, .T. ) ;
#64 = VERTEX_POINT ( 'NONE', #51 ) ;
#65 = PRESENTATION_LAYER_ASSIGNMENT (  '', '', ( #56 ) ) ;
#66 = ADVANCED_FACE ( 'NONE', ( #157 ), #192, .F. ) ;
#67 = CARTESIAN_POINT ( 'NONE',  ( 0.0000000000000000000, 0.0000000000000000000, 0.0000000000000000000 ) ) ;
#68 = CARTESIAN_POINT ( 'NONE',  ( 0.0000000000000000000, 0.0000000000000000000, 0.0000000000000000000 ) ) ;
#69 = AXIS2_PLACEMENT_3D ( 'NONE', #7, #24, #19 ) ;
#70 = ORIENTED_EDGE ( 'NONE', *, *, #18, .F. ) ;
#71 =( NAMED_UNIT ( * ) SI_UNIT ( $, .STERADIAN. ) SOLID_ANGLE_UNIT ( ) );
#72 = CLOSED_SHELL ( 'NONE', ( #66, #1, #20, #35, #63, #47 ) ) ;
#73 = ORIENTED_EDGE ( 'NONE', *, *, #110, .T. ) ;
#74 = MECHANICAL_DESIGN_GEOMETRIC_PRESENTATION_REPRESENTATION (  '', ( #56 ), #87 ) ;
#75 = DIRECTION ( 'NONE',  ( 0.0000000000000000000, 0.0000000000000000000, 1.000000000000000000 ) ) ;
#76 = CARTESIAN_POINT ( 'NONE',  ( 10.00000000000000000, 0.0000000000000000000, -3000.000000000000000 ) ) ;
#77 = AXIS2_PLACEMENT_3D ( 'NONE', #37, #42, #43 ) ;
#78 = EDGE_LOOP ( 'NONE', ( #50, #158 ) ) ;
#79 = FILL_AREA_STYLE ('',( #62 ) ) ;
#80 = CARTESIAN_POINT ( 'NONE',  ( 9.000000000000001800, 0.0000000000000000000, -3000.000000000000000 ) ) ;
#81 = FACE_OUTER_BOUND ( 'NONE', #97, .T. ) ;
#82 = DIRECTION ( 'NONE',  ( 1.000000000000000000, 0.0000000000000000000, 0.0000000000000000000 ) ) ;
#83 = CIRCLE ( 'NONE', #196, 9.000000000000001800 ) ;
#84 = CYLINDRICAL_SURFACE ( 'NONE', #101, 9.000000000000001800 ) ;
#85 = SURFACE_SIDE_STYLE ('',( #92 ) ) ;
#86 = SURFACE_STYLE_USAGE ( .BOTH. , #85 ) ;
#87 =( GEOMETRIC_REPRESENTATION_CONTEXT ( 3 ) GLOBAL_UNCERTAINTY_ASSIGNED_CONTEXT ( ( #182 ) ) GLOBAL_UNIT_ASSIGNED_CONTEXT ( ( #127, #139, #71 ) ) REPRESENTATION_CONTEXT ( 'NONE', 'WORKASPACE' ) );
#88 =( LENGTH_UNIT ( ) NAMED_UNIT ( * ) SI_UNIT ( .MILLI., .METRE. ) );
#89 = ORIENTED_EDGE ( 'NONE', *, *, #110, .F. ) ;
#90 = LINE ( 'NONE', #159, #95 ) ;
#91 = ORIENTED_EDGE ( 'NONE', *, *, #160, .F. ) ;
#92 = SURFACE_STYLE_FILL_AREA ( #79 ) ;
#93 = DIRECTION ( 'NONE',  ( 0.0000000000000000000, 0.0000000000000000000, 1.000000000000000000 ) ) ;
#94 =( NAMED_UNIT ( * ) PLANE_ANGLE_UNIT ( ) SI_UNIT ( $, .RADIAN. ) );
#95 = VECTOR ( 'NONE', #120, 1000.000000000000000 ) ;
#96 =( NAMED_UNIT ( * ) SI_UNIT ( $, .STERADIAN. ) SOLID_ANGLE_UNIT ( ) );
#97 = EDGE_LOOP ( 'NONE', ( #151, #23, #60, #29 ) ) ;
#98 = PRODUCT ( '2046566', '2046566', '', ( #163 ) ) ;
#99 = PRESENTATION_STYLE_ASSIGNMENT (( #145 ) ) ;
#100 = EDGE_CURVE ( 'NONE', #27, #16, #113, .T. ) ;
#101 = AXIS2_PLACEMENT_3D ( 'NONE', #121, #116, #49 ) ;
#102 = FACE_BOUND ( 'NONE', #201, .T. ) ;
#103 =( NAMED_UNIT ( * ) SI_UNIT ( $, .STERADIAN. ) SOLID_ANGLE_UNIT ( ) );
#104 = COLOUR_RGB ( '',0.7529411764705882200, 0.7529411764705882200, 0.7529411764705882200 ) ;
#105 = CARTESIAN_POINT ( 'NONE',  ( -9.000000000000001800, 1.102182119232617900E-015, -3000.000000000000000 ) ) ;
#106 = MANIFOLD_SOLID_BREP ( 'Rohr St', #72 ) ;
#107 = ORIENTED_EDGE ( 'NONE', *, *, #148, .T. ) ;
#108 = CIRCLE ( 'NONE', #15, 9.000000000000001800 ) ;
#109 = PRODUCT_DEFINITION_SHAPE ( 'NONE', 'NONE',  #134 ) ;
#110 = EDGE_CURVE ( 'NONE', #181, #179, #132, .T. ) ;
#111 = AXIS2_PLACEMENT_3D ( 'NONE', #68, #93, #53 ) ;
#112 = EDGE_LOOP ( 'NONE', ( #91, #146, #73, #70 ) ) ;
#113 = LINE ( 'NONE', #76, #209 ) ;
#114 = DIRECTION ( 'NONE',  ( 0.0000000000000000000, 0.0000000000000000000, 1.000000000000000000 ) ) ;
#115 = EDGE_LOOP ( 'NONE', ( #40, #131 ) ) ;
#116 = DIRECTION ( 'NONE',  ( 0.0000000000000000000, 0.0000000000000000000, 1.000000000000000000 ) ) ;
#117 = APPLICATION_PROTOCOL_DEFINITION ( 'draft international standard', 'automotive_design', 1998, #147 ) ;
#118 = CARTESIAN_POINT ( 'NONE',  ( 0.0000000000000000000, 0.0000000000000000000, 0.0000000000000000000 ) ) ;
#119 = ORIENTED_EDGE ( 'NONE', *, *, #211, .T. ) ;
#120 = DIRECTION ( 'NONE',  ( 0.0000000000000000000, 0.0000000000000000000, 1.000000000000000000 ) ) ;
#121 = CARTESIAN_POINT ( 'NONE',  ( 0.0000000000000000000, 0.0000000000000000000, -3000.000000000000000 ) ) ;
#122 = AXIS2_PLACEMENT_3D ( 'NONE', #67, #11, #137 ) ;
#123 = DIRECTION ( 'NONE',  ( 1.000000000000000000, 0.0000000000000000000, 0.0000000000000000000 ) ) ;
#124 = ORIENTED_EDGE ( 'NONE', *, *, #160, .T. ) ;
#125 = CARTESIAN_POINT ( 'NONE',  ( 0.0000000000000000000, 0.0000000000000000000, 0.0000000000000000000 ) ) ;
#126 = STYLED_ITEM ( 'NONE', ( #32 ), #106 ) ;
#127 =( LENGTH_UNIT ( ) NAMED_UNIT ( * ) SI_UNIT ( .MILLI., .METRE. ) );
#128 = ORIENTED_EDGE ( 'NONE', *, *, #211, .F. ) ;
#129 = DIRECTION ( 'NONE',  ( 0.0000000000000000000, 0.0000000000000000000, 1.000000000000000000 ) ) ;
#130 = DIRECTION ( 'NONE',  ( 1.000000000000000000, 0.0000000000000000000, 0.0000000000000000000 ) ) ;
#131 = ORIENTED_EDGE ( 'NONE', *, *, #212, .F. ) ;
#132 = CIRCLE ( 'NONE', #174, 9.000000000000001800 ) ;
#133 = CARTESIAN_POINT ( 'NONE',  ( -10.00000000000000000, 1.224646799147353300E-015, 0.0000000000000000000 ) ) ;
#134 = PRODUCT_DEFINITION ( 'UNKNOWN', '', #152, #4 ) ;
#135 = DIRECTION ( 'NONE',  ( 0.0000000000000000000, 0.0000000000000000000, 1.000000000000000000 ) ) ;
#136 = DIRECTION ( 'NONE',  ( 1.000000000000000000, 0.0000000000000000000, 0.0000000000000000000 ) ) ;
#137 = DIRECTION ( 'NONE',  ( 1.000000000000000000, 0.0000000000000000000, 0.0000000000000000000 ) ) ;
#138 = CARTESIAN_POINT ( 'NONE',  ( -9.000000000000001800, 1.102182119232617900E-015, -3000.000000000000000 ) ) ;
#139 =( NAMED_UNIT ( * ) PLANE_ANGLE_UNIT ( ) SI_UNIT ( $, .RADIAN. ) );
#140 = FACE_OUTER_BOUND ( 'NONE', #168, .T. ) ;
#141 = DIRECTION ( 'NONE',  ( 0.0000000000000000000, 0.0000000000000000000, 1.000000000000000000 ) ) ;
#142 = LINE ( 'NONE', #175, #184 ) ;
#143 = DIRECTION ( 'NONE',  ( 0.0000000000000000000, 0.0000000000000000000, 1.000000000000000000 ) ) ;
#144 = AXIS2_PLACEMENT_3D ( 'NONE', #54, #59, #82 ) ;
#145 = SURFACE_STYLE_USAGE ( .BOTH. , #177 ) ;
#146 = ORIENTED_EDGE ( 'NONE', *, *, #178, .T. ) ;
#147 = APPLICATION_CONTEXT ( 'automotive_design' ) ;
#148 = EDGE_CURVE ( 'NONE', #179, #181, #176, .T. ) ;
#149 = ORIENTED_EDGE ( 'NONE', *, *, #178, .F. ) ;
#150 = DIRECTION ( 'NONE',  ( 1.000000000000000000, 0.0000000000000000000, 0.0000000000000000000 ) ) ;
#151 = ORIENTED_EDGE ( 'NONE', *, *, #169, .F. ) ;
#152 = PRODUCT_DEFINITION_FORMATION_WITH_SPECIFIED_SOURCE ( 'ANY', '', #98, .NOT_KNOWN. ) ;
#153 = UNCERTAINTY_MEASURE_WITH_UNIT (LENGTH_MEASURE( 1.000000000000000100E-005 ), #189, 'distance_accuracy_value', 'NONE');
#154 = CIRCLE ( 'NONE', #2, 10.00000000000000000 ) ;
#155 = DIRECTION ( 'NONE',  ( 0.0000000000000000000, 0.0000000000000000000, 1.000000000000000000 ) ) ;
#156 = MECHANICAL_DESIGN_GEOMETRIC_PRESENTATION_REPRESENTATION (  '', ( #126 ), #167 ) ;
#157 = FACE_OUTER_BOUND ( 'NONE', #112, .T. ) ;
#158 = ORIENTED_EDGE ( 'NONE', *, *, #190, .T. ) ;
#159 = CARTESIAN_POINT ( 'NONE',  ( 9.000000000000001800, 0.0000000000000000000, -3000.000000000000000 ) ) ;
#160 = EDGE_CURVE ( 'NONE', #213, #12, #83, .T. ) ;
#161 = VERTEX_POINT ( 'NONE', #133 ) ;
#162 = PRODUCT_RELATED_PRODUCT_CATEGORY ( 'part', '', ( #98 ) ) ;
#163 = PRODUCT_CONTEXT ( 'NONE', #147, 'mechanical' ) ;
#164 = APPLICATION_PROTOCOL_DEFINITION ( 'draft international standard', 'automotive_design', 1998, #171 ) ;
#165 =( NAMED_UNIT ( * ) PLANE_ANGLE_UNIT ( ) SI_UNIT ( $, .RADIAN. ) );
#166 = DIRECTION ( 'NONE',  ( 0.0000000000000000000, 0.0000000000000000000, 1.000000000000000000 ) ) ;
#167 =( GEOMETRIC_REPRESENTATION_CONTEXT ( 3 ) GLOBAL_UNCERTAINTY_ASSIGNED_CONTEXT ( ( #57 ) ) GLOBAL_UNIT_ASSIGNED_CONTEXT ( ( #88, #94, #96 ) ) REPRESENTATION_CONTEXT ( 'NONE', 'WORKASPACE' ) );
#168 = EDGE_LOOP ( 'NONE', ( #149, #128, #197, #107 ) ) ;
#169 = EDGE_CURVE ( 'NONE', #64, #161, #142, .T. ) ;
#170 = ORIENTED_EDGE ( 'NONE', *, *, #169, .T. ) ;
#171 = APPLICATION_CONTEXT ( 'automotive_design' ) ;
#172 = DIRECTION ( 'NONE',  ( 1.000000000000000000, 0.0000000000000000000, 0.0000000000000000000 ) ) ;
#173 = ORIENTED_EDGE ( 'NONE', *, *, #148, .F. ) ;
#174 = AXIS2_PLACEMENT_3D ( 'NONE', #118, #129, #130 ) ;
#175 = CARTESIAN_POINT ( 'NONE',  ( -10.00000000000000000, 1.224646799147353300E-015, -3000.000000000000000 ) ) ;
#176 = CIRCLE ( 'NONE', #185, 9.000000000000001800 ) ;
#177 = SURFACE_SIDE_STYLE ('',( #14 ) ) ;
#178 = EDGE_CURVE ( 'NONE', #213, #181, #45, .T. ) ;
#179 = VERTEX_POINT ( 'NONE', #202 ) ;
#180 = FILL_AREA_STYLE ('',( #52 ) ) ;
#181 = VERTEX_POINT ( 'NONE', #199 ) ;
#182 = UNCERTAINTY_MEASURE_WITH_UNIT (LENGTH_MEASURE( 1.000000000000000100E-005 ), #127, 'distance_accuracy_value', 'NONE');
#183 = FACE_BOUND ( 'NONE', #191, .T. ) ;
#184 = VECTOR ( 'NONE', #141, 1000.000000000000000 ) ;
#185 = AXIS2_PLACEMENT_3D ( 'NONE', #205, #204, #203 ) ;
#186 = DIRECTION ( 'NONE',  ( 0.0000000000000000000, 0.0000000000000000000, 1.000000000000000000 ) ) ;
#187 = CARTESIAN_POINT ( 'NONE',  ( 0.0000000000000000000, 0.0000000000000000000, 0.0000000000000000000 ) ) ;
#188 = ORIENTED_EDGE ( 'NONE', *, *, #100, .F. ) ;
#189 =( LENGTH_UNIT ( ) NAMED_UNIT ( * ) SI_UNIT ( .MILLI., .METRE. ) );
#190 = EDGE_CURVE ( 'NONE', #161, #16, #194, .T. ) ;
#191 = EDGE_LOOP ( 'NONE', ( #119, #124 ) ) ;
#192 = CYLINDRICAL_SURFACE ( 'NONE', #144, 9.000000000000001800 ) ;
#193 = CARTESIAN_POINT ( 'NONE',  ( 0.0000000000000000000, 0.0000000000000000000, -3000.000000000000000 ) ) ;
#194 = CIRCLE ( 'NONE', #210, 10.00000000000000000 ) ;
#195 = DIRECTION ( 'NONE',  ( 1.000000000000000000, 0.0000000000000000000, 0.0000000000000000000 ) ) ;
#196 = AXIS2_PLACEMENT_3D ( 'NONE', #208, #135, #136 ) ;
#197 = ORIENTED_EDGE ( 'NONE', *, *, #18, .T. ) ;
#198 = EDGE_CURVE ( 'NONE', #16, #161, #154, .T. ) ;
#199 = CARTESIAN_POINT ( 'NONE',  ( -9.000000000000001800, 1.102182119232617900E-015, 0.0000000000000000000 ) ) ;
#200 = COLOUR_RGB ( '',0.7529411764705882200, 0.7529411764705882200, 0.7529411764705882200 ) ;
#201 = EDGE_LOOP ( 'NONE', ( #173, #89 ) ) ;
#202 = CARTESIAN_POINT ( 'NONE',  ( 9.000000000000001800, 0.0000000000000000000, 0.0000000000000000000 ) ) ;
#203 = DIRECTION ( 'NONE',  ( 1.000000000000000000, 0.0000000000000000000, 0.0000000000000000000 ) ) ;
#204 = DIRECTION ( 'NONE',  ( 0.0000000000000000000, 0.0000000000000000000, 1.000000000000000000 ) ) ;
#205 = CARTESIAN_POINT ( 'NONE',  ( 0.0000000000000000000, 0.0000000000000000000, 0.0000000000000000000 ) ) ;
#206 = DIRECTION ( 'NONE',  ( 0.0000000000000000000, 0.0000000000000000000, 1.000000000000000000 ) ) ;
#207 = ORIENTED_EDGE ( 'NONE', *, *, #8, .T. ) ;
#208 = CARTESIAN_POINT ( 'NONE',  ( 0.0000000000000000000, 0.0000000000000000000, -3000.000000000000000 ) ) ;
#209 = VECTOR ( 'NONE', #75, 1000.000000000000000 ) ;
#210 = AXIS2_PLACEMENT_3D ( 'NONE', #187, #186, #172 ) ;
#211 = EDGE_CURVE ( 'NONE', #12, #213, #108, .T. ) ;
#212 = EDGE_CURVE ( 'NONE', #64, #27, #61, .T. ) ;
#213 = VERTEX_POINT ( 'NONE', #105 ) ;
#214 = FACE_OUTER_BOUND ( 'NONE', #58, .T. ) ;
ENDSEC;
END-ISO-10303-21;
